>
 >
Done With You

Done With You Guitar Tabs

Papa Roach - Done With You chords, tabs, tablatures, lyrics

Guitar lessons | Add/correct | Request | Top 50 tabs Artists:  A B C D E F G H I J K L M N O P Q R S T U V W X Y Z 0-9

Done With You Guitar Tabs – Papa Roach

CD, Sheet music, Poster

Do you like Done With You? Share with your friends now
Bass TabsChordsTabsTabs v2Tabs v3Ukulele
Band- Papa Roach
Song- Done With You

Tuning for both guitars - D# A# D# G# B E

 Intro
  Q=140
 4/4
  Gtr I
  PM-------------------------------------------------------------------|
  E E E E E E E E   E E E E E E E  E   E E E E E E E E   E E E E E E E E
|-----------------|------------------|-----------------|------------------|
|-----------------|------------------|-----------------|------------------|
|-----------------|------------------|-----------------|------------------|
|-7-7-7-7-7-7-7-0-|-5-5-5-5-5-5-5-12-|-0-0-0-0-0-0-0-0-|-3-3-3-0-5-5-5-0--|
|-7-7-7-7-7-7-7-0-|-5-5-5-5-5-5-5-12-|-0-0-0-0-0-0-0-0-|-3-3-3-0-5-5-5-0--|
|-7-7-7-7-7-7-7-0-|-5-5-5-5-5-5-5-12-|-0-0-0-0-0-0-0-0-|-3-3-3-0-5-5-5-0--|


  PM-------------------------------------------------------------|
  E E E E E E E E   E E E E E E E  E   E E E E E E E E   E E E E E E Q
|-----------------|------------------|-----------------|----------------|
|-----------------|------------------|-----------------|----------------|
|-----------------|------------------|-----------------|----------------|
|-7-7-7-7-7-7-7-0-|-5-5-5-5-5-5-5-12-|-0-0-0-0-0-0-0-0-|-3-3-3-0-5-5-5--|
|-7-7-7-7-7-7-7-0-|-5-5-5-5-5-5-5-12-|-0-0-0-0-0-0-0-0-|-3-3-3-0-5-5-5--|
|-7-7-7-7-7-7-7-0-|-5-5-5-5-5-5-5-12-|-0-0-0-0-0-0-0-0-|-3-3-3-0-5-5-5--|


 Verse
  E E  E   E   E   E   E  E   E E  E   E   E   E   E   E
|---------------------------|----------------------------|
|---------------------------|----------------------------|
|---------------------------|----------------------------|
|-7-7---------------------0-|-5-5---------------------12-|
|-7-7---------------------0-|-5-5---------------------12-|
|-7-7------0-|-5-5------12-|
|
| Gtr II
| E E  H.                     E E  H.
|---------------------------|----------------------------|
|---------------------------|----------------------------|
|---------------------------|----------------------------|
|-7-7-----------------------|-5-5------------------------|
|-7-7-----------------------|-5-5------------------------|
|-7-7-----------------------|-5-5------------------------|


  E E  E   E   E   E   E   E    E E  E  E E E E E
|-----------------------------|-------------------|
|-----------------------------|-------------------|
|-----------------------------|-------------------|
|-0-0-------------------------|-3-3--x--0-5-5-x-0-|
|-0-0-------|-3-3--x--0-5-5-x-0-|
|-0-0-------|-3-3--x--0-5-5-x-0-|
|
| E E  H.                       E E  Q    E E Q
|-----------------------------|-------------------|
|-----------------------------|-------------------|
|-----------------------------|-------------------|
|-0-0-------------------------|-3-3-------5-5-----|
|-0-0-------------------------|-3-3-------5-5-----|
|-0-0-------------------------|-3-3-------5-5-----|


  E E  E   E   E   E   E  E   E E  E   E   E   E   E   E
|---------------------------|----------------------------|
|---------------------------|----------------------------|
|---------------------------|----------------------------|
|-7-7---------------------0-|-5-5---------------------12-|
|-7-7---------------------0-|-5-5---------------------12-|
|-7-7------0-|-5-5------12-|
|
| E E  H.                     E E  H.
|---------------------------|----------------------------|
|---------------------------|----------------------------|
|---------------------------|----------------------------|
|-7-7-----------------------|-5-5------------------------|
|-7-7-----------------------|-5-5------------------------|
|-7-7-----------------------|-5-5------------------------|


      PM---------|
  E E E  E E E E E   E E E E E E E E
|------------------|-----------------|
|------------------|-----------------|
|------------------|-----------------|
|-0-0--------------|-3-3-3-0-5-5-5-0-|
|-0-0-0--0-0-0-0-0-|-3-3-3-0-5-5-5-0-|
|-0-0-0--0-0-0-0-0-|-3-3-3-0-5-5-5-0-|
|
| E E H.             E E E E E E E E
|------------------|-----------------|
|------------------|-----------------|
|------------------|-----------------|
|-0-0--------------|-3-3-3-0-5-5-5-0-|
|-0-0--------------|-3-3-3-0-5-5-5-0-|
|-0-0--------------|-3-3-3-0-5-5-5-0-|


 Chorus
  Gtrs I, II
  E E E E E E E E   E E E E E E E E   E E E E E E E E   E E E E E E E E
|-----------------|-----------------|-----------------|-----------------|
|-----------------|-----------------|-----------------|-----------------|
|-----------------|-----------------|-----------------|-----------------|
|-7-7-7-7-7-7-7-7-|-3-3-3-3-3-3-3-3-|-0-0-0-0-0-0-0-0-|-5-5-5-5-5-5-5-5-|
|-7-7-7-7-7-7-7-7-|-3-3-3-3-3-3-3-3-|-0-0-0-0-0-0-0-0-|-5-5-5-5-5-5-5-5-|
|-7-7-7-7-7-7-7-7-|-3-3-3-3-3-3-3-3-|-0-0-0-0-0-0-0-0-|-5-5-5-5-5-5-5-5-|


  E E E E E E E E   E E E E E E E E
|-----------------|-----------------|
|-----------------|-----------------|
|-----------------|-----------------|
|-7-7-7-7-7-7-7-7-|-3-3-3-3-3-3-3-3-|
|-7-7-7-7-7-7-7-7-|-3-3-3-3-3-3-3-3-|
|-7-7-7-7-7-7-7-7-|-3-3-3-3-3-3-3-3-|


  E E E E  E  E  E  E    E  E  E  E  E  E  E  E
|---------------------|-------------------------|
|---------------------|-------------------------|
|---------14-14-14-14-|-14-14-14-14-14-14-14-14-|
|-0-0-0-0--x--x--x--x-|--x--x--x--x--x--x--x--x-|
|-0-0-0-0-12-12-12-12-|-12-12-12-12-12-12-12-12-|
|-0-0-0-0--0--0--0--0-|-------------------------|


  W          W          W          +W
|----------|----------|----------|--------|
|----------|----------|----------|--------|
|----------|----------|----------|--------|
|-5--------|-5--------|-3--------|-(3)----|
|-3--------|-5--------|-3--------|-(3)----|
|-5--------|-5--------|-3--------|-(3)----|


 Verse
  Gtr I
  E E  E   E   E   E   E  E   E E  E   E   E   E   E   E
|---------------------------|----------------------------|
|---------------------------|----------------------------|
|---------------------------|----------------------------|
|-7-7---------------------0-|-5-5---------------------12-|
|-7-7---------------------0-|-5-5---------------------12-|
|-7-7------0-|-5-5------12-|


  E E  E   E   E   E   E   E    E E  E  E E E E E
|-----------------------------|-------------------|
|-----------------------------|-------------------|
|-----------------------------|-------------------|
|-0-0-------------------------|-3-3--x--0-5-5-x-0-|
|-0-0-------|-3-3--x--0-5-5-x-0-|
|-0-0-------|-3-3--x--0-5-5-x-0-|


  E E  E   E   E   E   E  E   E E  E   E   E   E   E   E
|---------------------------|----------------------------|
|---------------------------|----------------------------|
|---------------------------|----------------------------|
|-7-7---------------------0-|-5-5---------------------12-|
|-7-7---------------------0-|-5-5---------------------12-|
|-7-7------0-|-5-5------12-|


      PM--------|
  E E E E E E E E   E E  E  E E E E E
|-----------------|-------------------|
|-----------------|-------------------|
|-----------------|-------------------|
|-0-0-------------|-3-3--x--0-5-5-x-0-|
|-0-0-0-0-0-0-0-0-|-3-3--x--0-5-5-x-0-|
|-0-0-0-0-0-0-0-0-|-3-3--x--0-5-5-x-0-|


  E E  E   E   E   E   E  E   E E  E   E   E   E   E   E
|---------------------------|----------------------------|
|---------------------------|----------------------------|
|---------------------------|----------------------------|
|-7-7---------------------0-|-5-5---------------------12-|
|-7-7---------------------0-|-5-5---------------------12-|
|-7-7------0-|-5-5------12-|
|
| Gtr II
| E E  H.                     E E  H.
|---------------------------|----------------------------|
|---------------------------|----------------------------|
|---------------------------|----------------------------|
|-7-7-----------------------|-5-5------------------------|
|-7-7-----------------------|-5-5------------------------|
|-7-7-----------------------|-5-5------------------------|


  E E  E   E   E   E   E   E    E E  E  E E E E E
|-----------------------------|-------------------|
|-----------------------------|-------------------|
|-----------------------------|-------------------|
|-0-0-------------------------|-3-3--x--0-5-5-x-0-|
|-0-0-------|-3-3--x--0-5-5-x-0-|
|-0-0-------|-3-3--x--0-5-5-x-0-|
|
| E E  H.                       E E  Q    E E Q
|-----------------------------|-------------------|
|-----------------------------|-------------------|
|-----------------------------|-------------------|
|-0-0-------------------------|-3-3-------5-5-----|
|-0-0-------------------------|-3-3-------5-5-----|
|-0-0-------------------------|-3-3-------5-5-----|


  E E  E   E   E   E   E  E   E E  E   E   E   E   E   E
|---------------------------|----------------------------|
|---------------------------|----------------------------|
|---------------------------|----------------------------|
|-7-7---------------------0-|-5-5---------------------12-|
|-7-7---------------------0-|-5-5---------------------12-|
|-7-7------0-|-5-5------12-|
|
| E E  H.                     E E  H.
|---------------------------|----------------------------|
|---------------------------|----------------------------|
|---------------------------|----------------------------|
|-7-7-----------------------|-5-5------------------------|
|-7-7-----------------------|-5-5------------------------|
|-7-7-----------------------|-5-5------------------------|


      PM---------|
  E E E  E E E E E   E E E E E E E E
|------------------|-----------------|
|------------------|-----------------|
|------------------|-----------------|
|-0-0--------------|-3-3-3-0-5-5-5-0-|
|-0-0-0--0-0-0-0-0-|-3-3-3-0-5-5-5-0-|
|-0-0-0--0-0-0-0-0-|-3-3-3-0-5-5-5-0-|
|
| E E H.             E E E E E E E E
|------------------|-----------------|
|------------------|-----------------|
|------------------|-----------------|
|-0-0--------------|-3-3-3-0-5-5-5-0-|
|-0-0--------------|-3-3-3-0-5-5-5-0-|
|-0-0--------------|-3-3-3-0-5-5-5-0-|


 Chorus
  Gtrs I, II
  E E E E E E E E   E E E E E E E E   E E E E E E E E   E E E E E E E E
|-----------------|-----------------|-----------------|-----------------|
|-----------------|-----------------|-----------------|-----------------|
|-----------------|-----------------|-----------------|-----------------|
|-7-7-7-7-7-7-7-7-|-3-3-3-3-3-3-3-3-|-0-0-0-0-0-0-0-0-|-5-5-5-5-5-5-5-5-|
|-7-7-7-7-7-7-7-7-|-3-3-3-3-3-3-3-3-|-0-0-0-0-0-0-0-0-|-5-5-5-5-5-5-5-5-|
|-7-7-7-7-7-7-7-7-|-3-3-3-3-3-3-3-3-|-0-0-0-0-0-0-0-0-|-5-5-5-5-5-5-5-5-|


  E E E E E E E E   E E E E E E E E
|-----------------|-----------------|
|-----------------|-----------------|
|-----------------|-----------------|
|-7-7-7-7-7-7-7-7-|-3-3-3-3-3-3-3-3-|
|-7-7-7-7-7-7-7-7-|-3-3-3-3-3-3-3-3-|
|-7-7-7-7-7-7-7-7-|-3-3-3-3-3-3-3-3-|


  E E E E  E  E  E  E    E  E  E  E  E  E  E  E
|---------------------|-------------------------|
|---------------------|-------------------------|
|---------14-14-14-14-|-14-14-14-14-14-14-14-14-|
|-0-0-0-0--x--x--x--x-|--x--x--x--x--x--x--x--x-|
|-0-0-0-0-12-12-12-12-|-12-12-12-12-12-12-12-12-|
|-0-0-0-0--0--0--0--0-|-------------------------|


                        PM------------------------------|
  W          W          E E E E E E E E   E E E E E E E E
|----------|----------|-----------------|-----------------|
|----------|----------|-----------------|-----------------|
|----------|----------|-----------------|-----------------|
|-5--------|-5--------|-3-3-3-3-3-3-3-3-|-3-3-3-3-3-3-3-3-|
|-3--------|-5--------|-3-3-3-3-3-3-3-3-|-3-3-3-3-3-3-3-3-|
|-5--------|-5--------|-3-3-3-3-3-3-3-3-|-3-3-3-3-3-3-3-3-|


   Bridge
    E Q  E H      E Q  E Q  Q    E Q  E H      E Q  E Q  Q    4x
||--------------|--------------|-------------|----------------||
||o-------------|--------------|-------------|---------------o||
||--------------|--------5-----|-------------|----------------||
||--7-7--5-7----|-3-3--3-x--3--|-0-0--5-0----|-0-0--5-0--5----||
||o-7-7--5-7----|-3-3--3-3--3--|-0-0--3-0----|-0-0--3-0--3---o||
||--7-7--5-7----|-3-3--3----3--|-0-0--5-0----|-0-0--5-0--5----||


 Pre-Chorus
  Gtr I
  PM-------------------------------------------------------------------|
  E E E E E E E E   E E E E E E E  E   E E E E E E E E   E E E E E E E E
|-----------------|------------------|-----------------|-----------------|
|-----------------|------------------|-----------------|-----------------|
|-----------------|------------------|-----------------|-----------------|
|-7-7-7-7-7-7-7-0-|-5-5-5-5-5-5-5-12-|-0-0-0-0-0-0-0-0-|-3-3-3-0-5-5-5-0-|
|-7-7-7-7-7-7-7-0-|-5-5-5-5-5-5-5-12-|-0-0-0-0-0-0-0-0-|-3-3-3-0-5-5-5-0-|
|-7-7-7-7-7-7-7-0-|-5-5-5-5-5-5-5-12-|-0-0-0-0-0-0-0-0-|-3-3-3-0-5-5-5-0-|


  PM-------------------------------------------------------------|
  E E E E E E E E   E E E E E E E  E   E E E E E E E E   E E E E E E E E
|-----------------|------------------|-----------------|-----------------|
|-----------------|------------------|-----------------|-----------------|
|-----------------|------------------|-----------------|-----------------|
|-7-7-7-7-7-7-7-0-|-5-5-5-5-5-5-5-12-|-0-0-0-0-0-0-0-0-|-3-3-3-0-5-5-5-0-|
|-7-7-7-7-7-7-7-0-|-5-5-5-5-5-5-5-12-|-0-0-0-0-0-0-0-0-|-3-3-3-0-5-5-5-0-|
|-7-7-7-7-7-7-7-0-|-5-5-5-5-5-5-5-12-|-0-0-0-0-0-0-0-0-|-3-3-3-0-5-5-5-0-|


 Chorus
  Gtrs I, II
  E E E E E E E E   E E E E E E E E   E E E E E E E E   E E E E E E E E
|-----------------|-----------------|-----------------|-----------------|
|-----------------|-----------------|-----------------|-----------------|
|-----------------|-----------------|-----------------|-----------------|
|-7-7-7-7-7-7-7-7-|-3-3-3-3-3-3-3-3-|-0-0-0-0-0-0-0-0-|-5-5-5-5-5-5-5-5-|
|-7-7-7-7-7-7-7-7-|-3-3-3-3-3-3-3-3-|-0-0-0-0-0-0-0-0-|-5-5-5-5-5-5-5-5-|
|-7-7-7-7-7-7-7-7-|-3-3-3-3-3-3-3-3-|-0-0-0-0-0-0-0-0-|-5-5-5-5-5-5-5-5-|


  Q.   Q  E Q    Q.   Q  E Q
|--------------|--------------|
|--------------|--------------|
|--------------|--------------|
|-7----7--7-7--|-3----3--3-3--|
|-7----7--7-7--|-3----3--3-3--|
|-7----7--7-7--|-3----3--3-3--|


  Gtr I
   E  E  E  E  E  E  E  E    E  E  E  E  E  E  E  E
|-------------------------|-------------------------|
|-------------------------|-------------------------|
|-14-14-14-14-14-14-14-14-|-14-14-14-14-14-14-14-14-|
|--x--x--x--x--x--x--x--x-|--x--x--x--x--x--x--x--x-|
|-12-12-12-12-12-12-12-12-|-12-12-12-12-12-12-12-12-|
|-------------------------|-------------------------|


    W          W           E  E  E  E  E  E  E  E    E  E  E  E  E  E  E  E   3x
||-----------|----------|-------------------------|---------------------------||
||o----------|----------|-------------------------|--------------------------o||
||-----------|----------|-14-14-14-14-14-14-14-14-|-14-14-14-14-14-14-14-14---||
||--5--------|-5--------|--x--x--x--x--x--x--x--x-|--x--x--x--x--x--x--x--x---||
||o-3--------|-5--------|-12-12-12-12-12-12-12-12-|-12-12-12-12-12-12-12-12--o||
||--5--------|-5--------|-------------------------|---------------------------||


  W          W          W          +W
|----------|----------|----------|--------*|
|----------|----------|----------|--------*|
|----------|----------|----------|--------*|
|-5--------|-5--------|-3--------|-(3)----*|
|-3--------|-5--------|-3--------|-(3)----*|
|-5--------|-5--------|-3--------|-(3)----*|





Comments


Popular Papa Roach tabs & chords
Blood Empty Promises 2 Bass Tabs
Code Of Energy Bass Tabs
Hollywood Whore 2 Bass Tabs
No Matter What 2 Bass Tabs
Time And Time Again 2 Bass Tabs
Hollywood Whore Drum Tabs
Legacy Tabs
Orange Drive Palms 1 Tabs
She Loves Me Not 8 Tabs
I Devise My Own Demise Ukulele


Song lyrics



↑ Back to top | Tablatures and chords are parodies/interpretations of the original songs. You may use it for private study, scholarship, research or language learning purposes only
© 2014 AZChords.com Contact us | Privacy policy | DMCA | Add/correct tabs | Request tabs | Top 50 tabs