» » »

Papa Roach, Caught Dead Tabs (ver.1)

Artists:  A B C D E F G H I J K L M N O P Q R S T U V W X Y Z # 

Caught Dead Tabs (ver.1)

Papa Roach Tabs
Rating:
0/5 (0 votes)
Caught Dead lessons Tabs too difficult? Try these video lessons and learn fast
                Tuning:Im down in C but you can easily play this in D...just drop everything 2 frets.  

This song is not on the Getting Away with Murder cd...but if you enter the code
into napster that is given to you in the cd (atleast at best buy I know it is)..
then you get this song plus two other unreleased ones...so for those of you who
know this one...it really rocks.  

Intro

D|---------------------------------------------------------------------------|
A|---------------------------------------------------------------------------|
F|---------------------------------------------------------------------------|
C|--13--15-------------------------------------------------------------------|
G|--13--15-------------------------------------------------------------------|
C|--13--15-------------------------------------------------------------------| ^ 
check rythym...just goes back and forth between two chords

After playing back and forth betwenn those two chords for a while...everythign
stops...and it switches to this for the verse
D|---------------------------------------------------------------------------|
A|---------------------------------------------------------------------------|
F|---------------------------------------------------------------------------|
C|-13-15-13--18---13-15-13--10-13-15-----------------------------------------|
G|-13-15-13--18---13-15-13--10-13-15---------------------3-------------------|
C|-13-15-13--18---13-15-13--10-13-15---------------------3-------------------|
Figure out the rythym...not that complicated...basicly goes back and forth between
that.  After playing that riff a few times he goes and rocks on the Palm Muted 3's...
but you could keep going with that riff because the bass does...which makes it sound
cool

He has a second guitar playin this notes when he is on the 3

D|-----------------13-----16-------------------------------------------------|
A|--6--------------13-----16--------------------------------------------------|
F|---------------------------------------------------------------------------|
C|---------------------------------------------------------------------------|
G|---------------------------------------------------------------------------|
C|---------------------------------------------------------------------------|

And quickly before the chorus he has this little riff which is cool.  Not sure if
its perfect...but it sounds right

D|---------------------------------------------------------------------------|
A|---------------------------------------------------------------------------|
F|------------------8--------------------------------------------------------|
C|--------8----8h10----------------------------------------------------------|
G|---8h10---10---------------------------------------------------------------|
C|---------------------------------------------------------------------------|

Pre Chorus


D|---------------------------------------------------------------------------|
A|---------------------------------------------------------------------------|
F|---------------------------------------------------------------------------|
C|--4--6-6----6-8-8----------------------------------------------------------|
G|--4--4-4----6-6-6----------------------------------------------------------|
C|--4--4-4----6-6-6----------------------------------------------------------|

Chorus
D|---------------------------------------------------------------------------|
A|---------------------------------------------------------------------------|
F|---------------------------------------------------------------------------|
C|--8----6----4----6---------------------------------------------------------|
G|--8----6----4----6---------------------------------------------------------|
C|--8----6----4----6---------------------------------------------------------|

Little Solo part after 2nd chorus

D|--------------------16-~13-------------------------------------------------|
A|-------------9--13---------------------------------------------------------|
F|-~11--~10------------------------------------------------------------------|
C|---------------------------------------------------------------------------|
G|---------------------------------------------------------------------------|
C|---------------------------------------------------------------------------|

And thats all really...most of the song is that main verse riff which is cool...you
can fool around with harmonics and the E flat chord (the 333)...and mute that in
parts...just watch out for the rythym changes and enjoy.
| /  slide up
| \  slide down
| h  hammer-on
| p  pull-off
| ~  vibrato
| +  harmonic
| x  Mute note
            
Submit corrections

comments powered by Disqus
↑ Back to top | Papa Roach Tabs for Caught Dead. Lyrics for acoustic guitar and electric guitar. Tablatures and chords are parodies/interpretations of the original songs. You may use it for private study, scholarship, research or language learning purposes only