» » »

Papa Roach, Burn Tabs (ver.1)

Artists:  A B C D E F G H I J K L M N O P Q R S T U V W X Y Z # 

Burn Tabs (ver.1)

Papa Roach Tabs
Rating:
0/5 (0 votes)
Burn lessons Tabs too difficult? Try these video lessons and learn fast
                Burn by Papa Roach
Guitars in Drop C, 91 BPM

Verse
(x4)
D--------------------------------------------------------|
A--------------------------------------------------------|
F--------------------------------------------------------|
C--------------------------------------------------------|
G--------------------------------------------------------|
C-2-0-2----x-2-0-2----x-2-2----2-0-2----x-2-0-2----x-0-0-|

Pre-Chorus w/ Harmonized Guitars
(Strum each chord 16 times)
GTR I
D--------------------------------|
A--------------------------------|
F-5--------7--------9--------16--|
C--------------------------------|
G-3--------5--------7--------14--|
C--------------------------------|
GTR II
D--------------------------------|
A--------------------------------|
F-9--------11-------12-------16--|
C--------------------------------|
G-7--------9--------10-------14--|
C--------------------------------|

Chorus 1
(\0=slide to end of fretboard towards headstock)
(x2)
D------------------------------------------------|
A------------------------------------------------|
F----------------------------------5-5-5-4-4-4-2-|
C-9\0-x-x--x-9\0-x-x--x-9\0-x-x--x-5-5-5-4-4-4-2-|
G-7\0-x-x--x-7\0-x-x--x-7\0-x-x--x-3-3-3-2-2-2-0-|
C-9\0-x-x--x-9\0-x-x--x-9\0-x-x--x---------------|

Chorus 2
(I'm just giving you the chords, find the strum pattern
that works for you.)
D------------------------------------------|
A------------------------------------------|
F-9--------7--------5--------5-4-2--5-4-2--|
C-9--------7--------5--------5-4-2--5-4-2--|
G-7--------5--------3--------3-2-0--3-2-0--|
C------------------------------------------|

D-----
A-----
F-----
C-9\0-
G-7\0-
C-9\0-

Verse
(x4)
D--------------------------------------------------------|
A--------------------------------------------------------|
F--------------------------------------------------------|
C--------------------------------------------------------|
G--------------------------------------------------------|
C-2-0-2----x-2-0-2----x-2-2----2-0-2----x-2-0-2----x-0-0-|

Pre-Chorus
GTR I
D--------------------------------|
A--------------------------------|
F-5--------7--------9--------16--|
C--------------------------------|
G-3--------5--------7--------14--|
C--------------------------------|
GTR II
D--------------------------------|
A--------------------------------|
F-9--------11-------12-------16--|
C--------------------------------|
G-7--------9--------10-------14--|
C--------------------------------|

Chorus 1
(x3)
D------------------------------------------------|
A------------------------------------------------|
F----------------------------------5-5-5-4-4-4-2-|
C-9\0-x-x--x-9\0-x-x--x-9\0-x-x--x-5-5-5-4-4-4-2-|
G-7\0-x-x--x-7\0-x-x--x-7\0-x-x--x-3-3-3-2-2-2-0-|
C-9\0-x-x--x-9\0-x-x--x-9\0-x-x--x---------------|

Chorus 2
(x2)
D------------------------------------------|
A------------------------------------------|
F-9--------7--------5--------5-4-2--5-4-2--|
C-9--------7--------5--------5-4-2--5-4-2--|
G-7--------5--------3--------3-2-0--3-2-0--|
C------------------------------------------|

Harmonized Guitar Solo
(Pre-Chorus riff is playing behind it)
(~=vibrato)
GTR I
D-12~~~~~~~~15-14~~~~~~~~17-15~~~~~~~~17-|
A----------------------------------------|
F----------------------------------------|
C----------------------------------------|
G----------------------------------------|
C----------------------------------------|
GTR II
D-15~~~~~~~~19-17~~~~~~~~20-19~~~~~~~~20-|
A----------------------------------------|
F----------------------------------------|
C----------------------------------------|
G----------------------------------------|
C----------------------------------------|

GTR I
D-19-19-19-17-17-17-15-15-15-14-14-14-12-12-10-10-|
A-------------------------------------------------|
F-------------------------------------------------|
C-------------------------------------------------|
G-------------------------------------------------|
C-------------------------------------------------|
GTR II
D-22-22-22-20-20-20-19-19-19-17-17-17-15-15-14-14-|
A-------------------------------------------------|
F-------------------------------------------------|
C-------------------------------------------------|
G-------------------------------------------------|
C-------------------------------------------------|

If you want to play the little techno-sounding fill
right here, it's
D-2-2-0-2-0--2-2-0-2-0-----------|
A--------------------------------|
F--------------------------------|
C--------------------------------|
G--------------------------------|
C--------------------------------|

Chorus 1
(x2)
D------------------------------------------------|
A------------------------------------------------|
F----------------------------------5-5-5-4-4-4-2-|
C-9\0-x-x--x-9\0-x-x--x-9\0-x-x--x-5-5-5-4-4-4-2-|
G-7\0-x-x--x-7\0-x-x--x-7\0-x-x--x-3-3-3-2-2-2-0-|
C-9\0-x-x--x-9\0-x-x--x-9\0-x-x--x---------------|

Chorus 2
(x2)
D------------------------------------------|
A------------------------------------------|
F-9--------7--------5--------5-4-2--5-4-2--|
C-9--------7--------5--------5-4-2--5-4-2--|
G-7--------5--------3--------3-2-0--3-2-0--|
C------------------------------------------|

Chorus 1/Outro
(x2)
D------------------------------------------------|
A------------------------------------------------|
F----------------------------------5-5-5-4-4-4-2-|
C-9\0-x-x--x-9\0-x-x--x-9\0-x-x--x-5-5-5-4-4-4-2-|
G-7\0-x-x--x-7\0-x-x--x-7\0-x-x--x-3-3-3-2-2-2-0-|
C-9\0-x-x--x-9\0-x-x--x-9\0-x-x--x---------------|

D-----
A-----
F-----
C-9\0-
G-7\0-
C-9\0-
            
Submit corrections

comments powered by Disqus
↑ Back to top | Papa Roach Tabs for Burn. Lyrics for acoustic guitar and electric guitar. Tablatures and chords are parodies/interpretations of the original songs. You may use it for private study, scholarship, research or language learning purposes only