» » »

Broken Home - Papa Roach Bass tabs (ver.1)

Artists:  A B C D E F G H I J K L M N O P Q R S T U V W X Y Z # 

Broken Home - Papa Roach Bass tabs (ver.1)

Papa Roach
Rating:
0/5 (0 votes)

Hard to play? Try these video lessons and learn fast.
                Broken Home
Papa Roach
Tablled by: Except_bass

G|------------------------------------------------
D|---4---------4---------4------------------------
A|-----4---------4---------4----------------------
E|-2----------2--------2--------------------------

Pre Chorus

G|-----------------------------------------------------------
D|-----------------------------------------------------------
A|-----------------5555-4444-2222-0000-----------------------
E|--22-22-22-2222--------------------------------------------

Chorus

G|-----------------------------------------------------
D|---4--------4--------4-------4-------4---------------
A|-----------------------------------------------------
E|-2---2----2---2----2---2---2---2---2----2------------

Verse

G|------------------------------
D|------------------------------
A|-------4-4---5-5--------------
E|--2-2-------------55----------
            
Hard to play? Try these video lessons and learn fast. | Correct




comments powered by Disqus
↑ Back to top | Tablatures and chords are parodies/interpretations of the original songs. You may use it for private study, scholarship, research or language learning purposes only