>
 >
Born With Nothin N Die With Everythin

Born With Nothin N Die With Everythin Guitar Tabs

Papa Roach - Born With Nothin N Die With Everythin chords, tabs, tablatures, lyrics

Guitar lessons | Add/correct | Request | Top 50 tabs Artists:  A B C D E F G H I J K L M N O P Q R S T U V W X Y Z 0-9

Born With Nothin N Die With Everythin Guitar Tabs – Papa Roach

CD, Sheet music, Poster

Do you like Born With Nothin N Die With Everythin? Share with your friends now
Tabs

Drop-C (CGCFAD) 

-------12-12------------------------------------------------------------------
-12-12-------12-12-12-15-15----15-10-10-10-10---------------------------------
 Riff 1                                                                 

----12-12-------8-8----8------------------------------------------------------
-8-8------8-8-8----------10-10-10-10------------------------------------------
  Riff 2                                                                 

-0-0--7-7--0-0-3-3----3-10-10-------------------------------------------------
-0-0--7-7--0-0-3-3----3-10-10-------------------------------------------------
-0-0--7-7--0-0-3-3----3-10-10-------------------------------------------------
 Verse  Riff 1                                     

-8-8-7-7-8-8--3-3---3-10-10-10-10---------------------------------------------
-8-8-7-7-8-8--3-3---3-10-10-10-10---------------------------------------------
-8-8-7-7-8-8--3-3---3-10-10-10-10---------------------------------------------
 Verse Riff 2                                                                 

-12-12-12-12-15-15-12-12--10-10--12-12--12-12--12-12--10-10-12-10--10101010---
-12-12-12-12-15-15-12-12--10-10--12-12--12-12--12-12--10-10-12-10--8-8-8-8----
-12-12-12-12-15-15-12-12--10-10--12-12--12-12--12-12--10-10-12-10--8-8-8-8----
 Pre-Chorus   

-1010-1010-1010-7-7-8-8-7-7--0h3-5-3-5-3-5------------------------------------
-8-8--8-8--8-8--7-7-8-8-7-7--0h3-5-3-5-3-5------------------------------------
-8-8--8-8--8-8--7-7-8-8-7-7--0h3-5-3-5-3-5------------------------------------
                                                                              

---------------------------------|--------------------------------------------
---------------------------------|--------------------------------------------
---------------------------------|--------------------------------------------
-0-0-----------------------------|-8-8----------------------------------------
-0-0---10h12---8h10---7h8p7----7-|-8-8---10h12---8h10---7h8p7----7------------
-0-0-0-------0------0-------10---|-8-8-0-------0------0-------10--------------
 Chorus                             

---------------5/7-7-101010-------------------------------------------------
-3-0-3-0-3-0-0-x-x-x-x-x-x--3/5-5-8-----------------------------------------
-3-0-3-0-3-0-0-3/5-5-8-8-8--3/5-5-8--10-10h12-10-8-8h10-7h8-8-8-8-7-7-7-7---
-3-0-3-0-3-0-0--------------3/5-5-8-----------------------------------------
 Bridge                                                                       

---------------------------------------------------------|----------------|--------------
---------------------------------------------------------|----------------|--------------
-----5/7-7-101010------------------------10101010-9-9-9-9|-9-9-9-9-5-5-5-5|--------------
-0-0-x-x-x-x-x-x--3/5-5-8-8-8-8-8-8-8-8-8-x-x-x-x-x-x-x-x|-x-x-x-x-x-x-x-x|--0-0-0-------
-0-0-3/5-5-8-8-8--3/5-5-8-8-8-8-8-8-8-8-8-8-8-8-8-7-7-7-7|-7-7-7-7-3-3-3-3|--0-0-0-------
-0-0--------------3/5-5-8-8-8-8-8-8-8-8-8----------------|----------------|--0-0-0-------
                                                                              


---------------------------------|---------------------------------|-----------------
---------------------------------|---------------------------------|-----------------
---------------------------------|---------------------------------|-----------------
-0-0-----------------------------|-8-8-----------------------------|-5-5-5-5-5-5-----
-0-0---10h12---8h10---7h8p7----7-|-8-8---10h12---8h10---7h8p7----7-|-x-x-x-x-x-x-----
-0-0-0-------0------0-------10---|-8-8-0-------0------0-------10---|-3-3-3-3-3-3-----


------------7--7--7---------------7--7--7-------------------------------------
-0--0--0----x--x--x----0--0--0----x--x--x-------------------------------------
-0--0--0----5--5--5----0--0--0----5--5--5-------------------------------------
-0--0--0----0--0--0----0--0--0----0--0--0-------------------------------------
 

ok thats all u need to know to play this song! personaly i think its a kool
song to play!! any questions just mail me!





Comments


Popular Papa Roach tabs & chords
Blood Brothers Bass Tabs
Isedufukndie Bass Tabs
Burn Chords
Forever 3 Chords
Hollywood Whore Drum Tabs
Lennys Tabs
Reckless Tabs
Silence Is The Enemy Tabs
Walking Thru Barbed Wire 2 Tabs
World Around You 1 Tabs


Song lyrics



↑ Back to top | Tablatures and chords are parodies/interpretations of the original songs. You may use it for private study, scholarship, research or language learning purposes only
© 2014 AZChords.com Contact us | Privacy policy | DMCA | Add/correct tabs | Request tabs | Top 50 tabs