» » »

Born With Nothing Die With Everything Tabs (ver.1)

Artists:  A B C D E F G H I J K L M N O P Q R S T U V W X Y Z # 

Born With Nothing Die With Everything Tabs (ver.1)

Papa Roach
Rating:
0/5 (0 votes)

Hard to play? Try these video lessons and learn fast.
                Tuning: Normal


This is the intro and also the verse in this song

E|--------------------------------
B|--------------------------------
G|--------------------------------
D|-----5-5------------------------
A|-3-3-----3-3-3-6-6--6-----------
E|---------------------6-6-6-6----

E|--------------------------------
B|--------------------------------
G|--------------------------------
D|-----5-5------------------------
A|---------------6-6--6-----------
E|-4-4-----4-4-4-------6-6-6-6----
            
Hard to play? Try these video lessons and learn fast. | Correct




comments powered by Disqus
↑ Back to top | Tablatures and chords are parodies/interpretations of the original songs. You may use it for private study, scholarship, research or language learning purposes only