» » »

Born With Nothing Die With Every Bass tabs (ver.1)

Artists:  A B C D E F G H I J K L M N O P Q R S T U V W X Y Z # 

Born With Nothing Die With Every Bass tabs (ver.1)

Papa Roach
Rating:
0/5 (0 votes)

Hard to play? Try these video lessons and learn fast.
                G-------------------------------------------------
D-----55------------------------------------------     verse
A--33----333-66-6---------------------------------
E----------------666------------------------------

G-------------------------------------------------
D-------------------------------------------------
A-----55-----66-6---------------------------------
E--44----444-----666------------------------------

G-------------------------------------------------
D-------------------------------------------------people wake up....
A--33-66-33--11-11-11-113311----------------------
E----------------------------44-44-446644-6h88-6h88

G-------------------------------------------------born with nothing.....
D-------3-5--1-3----------------------------------          2x
A--3-3-----------5-6--4-5-------------------------
E-------------------------------------------------

G-------------------------------------------------
D------3-5--1-3-----------------------------------
A----------------5-6--4-5-------------------------
E--44---------------------------------------------
            
Hard to play? Try these video lessons and learn fast. | Correct




comments powered by Disqus
↑ Back to top | Tablatures and chords are parodies/interpretations of the original songs. You may use it for private study, scholarship, research or language learning purposes only