>
 >
Blanket Of Fear

Blanket Of Fear Guitar Tabs

Papa Roach - Blanket Of Fear chords, tabs, tablatures, lyrics

Guitar lessons | Add/correct | Request | Top 50 tabs Artists:  A B C D E F G H I J K L M N O P Q R S T U V W X Y Z 0-9

Blanket Of Fear Guitar Tabs – Papa Roach

CD, Sheet music, Poster

Do you like Blanket Of Fear? Share with your friends now
Tabs
Gtr I (D A D G B E) - 'Jerry - Main Guitar'
Gtr II (D A D G B E) - 'Jerry - 2nd Guitar'


 Intro
  Q=160
  A5B5              A5B5  A5 B5    A5 B5
 4/4
  Gtr I
  E E E E E E E E   E E E  E  E  E  E  E
|-----------------|----------------------|
|-----------------|----------------------|
|-----------------|----------------------|
|-7-9-9-9-9-9-9-9-|-7-9-9--7--9--9--7--9-|
|-7-9-9-9-9-9-9-9-|-7-9-9--7--9--9--7--9-|
|-7h9-9-9-9-9-9-9-|-7h9-9--7h=9--9--7h=9-|
|
| Gtr II
| E E E E E E E E   E E E  E  E  E  E  E
|-----------------|----------------------|
|-----------------|----------------------|
|-----------------|-------11-11-11-------|
|-----------------|-9-9-9----------12-12-|
|-----------9-9-9-|----------------------|
|-----------------|----------------------|


  A5B5              A5B5  A5 B5    A5 B5
  E E E E E E E E   E E E  E  E  E  E  E
|-----------------|----------------------|
|-----------------|----------------------|
|-----------------|----------------------|
|-7-9-9-9-9-9-9-9-|-7-9-9--7--9--9--7--9-|
|-7-9-9-9-9-9-9-9-|-7-9-9--7--9--9--7--9-|
|-7h9-9-9-9-9-9-9-|-7h9-9--7h=9--9--7h=9-|
|
| E E E E E E E E   E E E  E  E  E  E  E
|-----------------|----------------------|
|-----------------|----------------------|
|-----------------|----------------------|
|-----------------|-9-9-9-11-11-11-------|
|-----------9-9-9-|----------------12-12-|
|-----------------|----------------------|


  A5B5              A5B5  A5 B5    A5 B5
  E E E E E E E E   E E E  E  E  E  E  E
|-----------------|----------------------|
|-----------------|----------------------|
|-----------------|----------------------|
|-7-9-9-9-9-9-9-9-|-7-9-9--7--9--9--7--9-|
|-7-9-9-9-9-9-9-9-|-7-9-9--7--9--9--7--9-|
|-7h9-9-9-9-9-9-9-|-7h9-9--7h=9--9--7h=9-|
|
| E E E E E E E E   E E E  E  E  E  E  E
|-----------------|----------------------|
|-----------------|----------------------|
|-----------------|-------11-11-11-------|
|-----------------|-9-9-9----------12-12-|
|-----------9-9-9-|----------------------|
|-----------------|----------------------|


  G5                      A5
   E  E  E  E  E  E E E    E  E  E  E  E  E E E
|-----------------------|------------------------|
|-----------------------|------------------------|
|-----------------------|------------------------|
|--5--5--5--5--5--5-5-5-|--7--7--7--7--7--7-7-7--|
|--5--5--5--5--5--5-5-5-|--7--7--7--7--7--7-7-7--|
|--5--5--5--5--5--5-5-5-|--7--7--7--7--7--7-7-7--|
|
|  E  E  E  E  E  E E E    E  E  E  E  E  E E E
|-----------------------|------------------------|
|-----------------------|------------------------|
|-11-11-11--------------|-11-11-11---------------|
|----------12-12-12-9-9-|----------12-12-12-9-9--|
|-----------------------|------------------------|
|-----------------------|------------------------|


 Pre-Verse
  B5  A5B5          A5B5      A5F#D5  B5  A5B5          A5B5
  W                 W                 W                 E E E E H
|-----------------|-----------------|-----------------|--------------|
|-----------------|-----------------|-----------------|---------9----|
|-----------------|-----------------|-----------------|---------x----|
|-----------------|-----------------|-----------------|---------7----|
|-----------------|-----------------|-----------------|--------------|
|-----------------|-----------------|-----------------|--------------|
|
| E E E E E E E E   E E E E E E E E   E E E E E E E E   E E E E H
|-----------------|-----------------|-----------------|--------------|
|-----------------|-----------------|-----------------|--------------|
|-----------------|-----------------|-----------------|---------9----|
|-9-9-7-9-x-x-9-9-|-7-9-x-x-9-7-4-0-|-9-9-7-9-x-x-9-9-|-7-9-x-x-x----|
|-9-9-7-9-x-x-9-9-|-7-9-x-x-9-7-4-0-|-9-9-7-9-x-x-9-9-|-7-9-x-x-7----|
|-9-9-7h9-x-x-9-9-|-7h9-x-x-9-7-4-0-|-9-9-7h9-x-x-9-9-|-7h9-x-x------|


   Verse
    B5  A5      B5    A5B5      A5F#D5  B5  A5B5          A5B5
    E E E E E E E E   E E E E E E E E   E E E E E E E E   E E E E H     3x
||------------------|-----------------|-----------------|---------------||
||o-----------------|-----------------|-----------------|--------------o||
||------------------|-----------------|-----------------|---------9-----||
||--9-9-7-9-x-x-9-9-|-7-9-x-x-9-7-4-0-|-9-9-7-9-x-x-9-9-|-7-9-x-x-x-----||
||o-9-9-7-9-x-x-9-9-|-7-9-x-x-9-7-4-0-|-9-9-7-9-x-x-9-9-|-7-9-x-x-7----o||
||--9-9-7h9-x-x-9-9-|-7h9-x-x-9-7-4-0-|-9-9-7h9-x-x-9-9-|-7h9-x-x-------||


  B5  A5B5          A5B5      A5F#D5  B5  A5B5          A5B5
  E E E E E E E E   E E E E E E E E   E E E E E E E E   E E E E  H
|-----------------|-----------------|-----------------|----------------|
|-----------------|-----------------|-----------------|----------------|
|-----------------|-----------------|-----------------|----------------|
|-9-9-7-9-x-x-9-9-|-7-9-x-x-9-7-4-0-|-9-9-7-9-x-x-9-9-|-7-9-x-x--------|
|-9-9-7-9-x-x-9-9-|-7-9-x-x-9-7-4-0-|-9-9-7-9-x-x-9-9-|-7-9-x-x-<9>----|
|-9-9-7h9-x-x-9-9-|-7h9-x-x-9-7-4-0-|-9-9-7h9-x-x-9-9-|-7h9-x-x-<9>----|


   Chorus
    A5B5              N.C.                A5B5              N.C.
    E E E E E E E E   E  E  E E E E E E   E E E E E E E E   E  E  E E E E E E
||------------------|-------------------|-----------------|-------------------|
||o-----------------|-------------------|-----------------|-------------------|
||------------------|-------------------|-----------------|-------------------|
||--7-9-9-9-9-9-9-9-|-------------------|-7-9-9-9-9-9-9-9-|-------------------|
||o-7-9-9-9-9-9-9-9-|-9h12-12-9-7-7-7-7-|-7-9-9-9-9-9-9-9-|-9h12-12-9-7-7-7-7-|
||--7h9-9-9-9-9-9-9-|-------------------|-7h9-9-9-9-9-9-9-|-------------------|


  A5B5              N.C.                G5                A5
  E E E E E E E E   E  E  E E E E E E   E E E E E E E E   E E E E E E E E
|-----------------|-------------------|-----------------|-------------------||
|-----------------|-------------------|-----------------|------------------o||
|-----------------|-------------------|-----------------|-------------------||
|-7-9-9-9-9-9-9-9-|-------------------|-5-5-5-5-5-5-5-5-|-7-7-7-7-7-7-7-7---||
|-7-9-9-9-9-9-9-9-|-9h12-12-9-7-7-7-7-|-5-5-5-5-5-5-5-5-|-7-7-7-7-7-7-7-7--o||
|-7h9-9-9-9-9-9-9-|-------------------|-5-5-5-5-5-5-5-5-|-7-7-7-7-7-7-7-7---||


 Verse
  B5  A5B5          A5B5      A5F#D5  B5  A5B5          A5B5
  E E E E E E E E   E E E E E E E E   E E E E E E E E   E E E E H
|-----------------|-----------------|-----------------|--------------|
|-----------------|-----------------|-----------------|--------------|
|-----------------|-----------------|-----------------|---------9----|
|-9-9-7-9-x-x-9-9-|-7-9-x-x-9-7-4-0-|-9-9-7-9-x-x-9-9-|-7-9-x-x-x----|
|-9-9-7-9-x-x-9-9-|-7-9-x-x-9-7-4-0-|-9-9-7-9-x-x-9-9-|-7-9-x-x-7----|
|-9-9-7h9-x-x-9-9-|-7h9-x-x-9-7-4-0-|-9-9-7h9-x-x-9-9-|-7h9-x-x------|


  B5  A5B5          A5B5      A5F#D5  B5  A5B5          A5B5    N.C.
  E E E E E E E E   E E E E E E E E   E E E E E E E E   E E E E S S S Q  +S
|-----------------|-----------------|-----------------|-----------------------|
|-----------------|-----------------|-----------------|-----------------------|
|-----------------|-----------------|-----------------|-----------------------|
|-9-9-7-9-x-x-9-9-|-7-9-x-x-9-7-4-0-|-9-9-7-9-x-x-9-9-|-7-9-x-x---------------|
|-9-9-7-9-x-x-9-9-|-7-9-x-x-9-7-4-0-|-9-9-7-9-x-x-9-9-|-7-9-x-x-7h9p7-5--(5)--|
|-9-9-7h9-x-x-9-9-|-7h9-x-x-9-7-4-0-|-9-9-7h9-x-x-9-9-|-7h9-x-x---------------|


  B5  A5B5          A5B5      A5F#D5  B5  A5B5          A5B5
  E E E E E E E E   E E E E E E E E   E E E E E E E E   E E E E H
|-----------------|-----------------|-----------------|--------------|
|-----------------|-----------------|-----------------|--------------|
|-----------------|-----------------|-----------------|---------9----|
|-9-9-7-9-x-x-9-9-|-7-9-x-x-9-7-4-0-|-9-9-7-9-x-x-9-9-|-7-9-x-x-x----|
|-9-9-7-9-x-x-9-9-|-7-9-x-x-9-7-4-0-|-9-9-7-9-x-x-9-9-|-7-9-x-x-7----|
|-9-9-7h9-x-x-9-9-|-7h9-x-x-9-7-4-0-|-9-9-7h9-x-x-9-9-|-7h9-x-x------|


  B5  A5B5          A5B5      A5F#D5  B5  A5B5          A5B5
  E E E E E E E E   E E E E E E E E   E E E E E E E E   E E E E  H
|-----------------|-----------------|-----------------|----------------|
|-----------------|-----------------|-----------------|----------------|
|-----------------|-----------------|-----------------|----------------|
|-9-9-7-9-x-x-9-9-|-7-9-x-x-9-7-4-0-|-9-9-7-9-x-x-9-9-|-7-9-x-x--------|
|-9-9-7-9-x-x-9-9-|-7-9-x-x-9-7-4-0-|-9-9-7-9-x-x-9-9-|-7-9-x-x-<9>----|
|-9-9-7h9-x-x-9-9-|-7h9-x-x-9-7-4-0-|-9-9-7h9-x-x-9-9-|-7h9-x-x-<9>----|


   Chorus
    A5B5              N.C.                A5B5              N.C.
    E E E E E E E E   E  E  E E E E E E   E E E E E E E E   E  E  E E E E E E
||------------------|-------------------|-----------------|-------------------|
||o-----------------|-------------------|-----------------|-------------------|
||------------------|-------------------|-----------------|-------------------|
||--7-9-9-9-9-9-9-9-|-------------------|-7-9-9-9-9-9-9-9-|-------------------|
||o-7-9-9-9-9-9-9-9-|-9h12-12-9-7-7-7-7-|-7-9-9-9-9-9-9-9-|-9h12-12-9-7-7-7-7-|
||--7h9-9-9-9-9-9-9-|-------------------|-7h9-9-9-9-9-9-9-|-------------------|


  A5B5              N.C.                G5                A5
  E E E E E E E E   E  E  E E E E E E   E E E E E E E E   E E E E E E E E
|-----------------|-------------------|-----------------|-------------------||
|-----------------|-------------------|-----------------|------------------o||
|-----------------|-------------------|-----------------|-------------------||
|-7-9-9-9-9-9-9-9-|-------------------|-5-5-5-5-5-5-5-5-|-7-7-7-7-7-7-7-7---||
|-7-9-9-9-9-9-9-9-|-9h12-12-9-7-7-7-7-|-5-5-5-5-5-5-5-5-|-7-7-7-7-7-7-7-7--o||
|-7h9-9-9-9-9-9-9-|-------------------|-5-5-5-5-5-5-5-5-|-7-7-7-7-7-7-7-7---||


   Bridge
    B5          A5     B5     G5          F#5    D5
    H    H      H    E Q.     H    H      H    E Q.
||------------|-------------|-----------|--------------||
||o-----------|-------------|-----------|-------------o||
||------------|-------------|-----------|--------------||
||--9----9----|-7----7-9----|-5----5----|-4----4-0-----||
||o-9----9----|-7----7-9----|-5----5----|-4----4-0----o||
||--9----9----|-7----7-9----|-5----5----|-4----4-0-----||


  A5B5              A5B5  A5 B5    A5 B5
  E E E E E E E E   E E E  E  E  E  E  E
|-----------------|----------------------|
|-----------------|----------------------|
|-----------------|----------------------|
|-7-9-9-9-9-9-9-9-|-7-9-9--7--9--9--7--9-|
|-7-9-9-9-9-9-9-9-|-7-9-9--7--9--9--7--9-|
|-7h9-9-9-9-9-9-9-|-7h9-9--7h=9--9--7h=9-|
|
| Gtr II
| E E E E E E E E   E E E  E  E  E  E  E
|-----------------|----------------------|
|-----------------|----------------------|
|-----------------|-------11-11-11-------|
|-----------------|-9-9-9----------12-12-|
|-----------9-9-9-|----------------------|
|-----------------|----------------------|


  A5B5              A5B5  A5 B5    A5 B5
  E E E E E E E E   E E E  E  E  E  E  E
|-----------------|-----------------------|
|-----------------|-----------------------|
|-----------------|-----------------------|
|-7-9-9-9-9-9-9-9-|-7-9-9--7--9--9--7--9--|
|-7-9-9-9-9-9-9-9-|-7-9-9--7--9--9--7--9--|
|-7h9-9-9-9-9-9-9-|-7h9-9--7h=9--9--7h=9--|
|
| E E E E E E E E   E E E  E  E  E  E  E
|-----------------|-----------------------|
|-----------------|-----------------------|
|-----------------|-----------------------|
|-----------------|-9-9-9-11-11-11--------|
|-----------9-9-9-|----------------12-12--|
|-----------------|-----------------------|


  A5B5              A5B5  A5 B5    A5 B5
  E E E E E E E E   E E E  E  E  E  E  E
|-----------------|----------------------|
|-----------------|----------------------|
|-----------------|----------------------|
|-7-9-9-9-9-9-9-9-|-7-9-9--7--9--9--7--9-|
|-7-9-9-9-9-9-9-9-|-7-9-9--7--9--9--7--9-|
|-7h9-9-9-9-9-9-9-|-7h9-9--7h=9--9--7h=9-|
|
| E E E E E E E E   E E E  E  E  E  E  E
|-----------------|----------------------|
|-----------------|----------------------|
|-----------------|-------11-11-11-------|
|-----------------|-9-9-9----------12-12-|
|-----------9-9-9-|----------------------|
|-----------------|----------------------|


  G5                      A5
   E  E  E  E  E  E E E    E  E  E  E  E  E E E
|-----------------------|------------------------|
|-----------------------|------------------------|
|-----------------------|------------------------|
|--5--5--5--5--5--5-5-5-|--7--7--7--7--7--7-7-7--|
|--5--5--5--5--5--5-5-5-|--7--7--7--7--7--7-7-7--|
|--5--5--5--5--5--5-5-5-|--7--7--7--7--7--7-7-7--|
|
|  E  E  E  E  E  E E E    E  E  E  E  E  E E E
|-----------------------|------------------------|
|-----------------------|------------------------|
|-11-11-11--------------|-11-11-11---------------|
|----------12-12-12-9-9-|----------12-12-12-9-9--|
|-----------------------|------------------------|
|-----------------------|------------------------|


  A5B5              A5B5  A5B5  A5B5    A5B5              A5B5  A5B5  A5B5
  H       H         W                   W                 W                 5x
|-----------------|-----------------||------------------|-------------------||
|-----------------|-----------------||o-----------------|------------------o||
|-----------------|-----------------||------------------|-------------------||
|-9\--------------|-----------------||------------------|-------------------||
|-9\--------------|-----------------||o-----------------|------------------o||
|-9\--------------|-----------------||------------------|-------------------||
|
|     PM--------|       PM    PM            PM--------|       PM    PM
| E E E E E E E E   E E E E E E E E     E E E E E E E E   E E E E E E E E   5x
|-----------------|-----------------||------------------|-------------------||
|-----------------|-----------------||o-----------------|------------------o||
|-----------------|-----------------||------------------|-------------------||
|-7-9-9-9-9-9-9-9-|-7-9-9-7-9-9-7-9-||--7-9-9-9-9-9-9-9-|-7-9-9-7-9-9-7-9---||
|-7-9-9-9-9-9-9-9-|-7-9-9-7-9-9-7-9-||o-7-9-9-9-9-9-9-9-|-7-9-9-7-9-9-7-9--o||
|-7h9-9-9-9-9-9-9-|-7h9-9-7h9-9-7h9-||--7h9-9-9-9-9-9-9-|-7h9-9-7h9-9-7h9---||


  A5B5              A5B5  A5B5  A5B5  A5B5              A5B5  N.C.  A5B5
                                                            PM
  W                 W                 W                 E E E E E E E E
|-----------------|-----------------|-----------------|------------------|
|-----------------|-----------------|-----------------|------------------|
|-----------------|-----------------|-----------------|------------------|
|-----------------|-----------------|-----------------|-7-9-9-------7-9--|
|-----------------|-----------------|-----------------|-7-9-9-7h9-9-7-9--|
|-----------------|-----------------|-----------------|-7h9-9-------7h9--|
|
|     PM--------|       PM    PM          PM--------|       PM
| E E E E E E E E   E E E E E E E E   E E E E E E E E   E E E E E E E E
|-----------------|-----------------|-----------------|------------------|
|-----------------|-----------------|-----------------|------------------|
|-----------------|-----------------|-----------------|------------------|
|-7-9-9-9-9-9-9-9-|-7-9-9-7-9-9-7-9-|-7-9-9-9-9-9-9-9-|-7-9-9-------7-9--|
|-7-9-9-9-9-9-9-9-|-7-9-9-7-9-9-7-9-|-7-9-9-9-9-9-9-9-|-7-9-9-7h9-9-7-9--|
|-7h9-9-9-9-9-9-9-|-7h9-9-7h9-9-7h9-|-7h9-9-9-9-9-9-9-|-7h9-9-------7h9--|


  B5           A5B5        A5  B5           A5B5        A5  B5
  H     H      E E E Q  Q  E   H     H      E E E Q  Q  E   H     H
|------------|---------------|------------|---------------|------------|
|------------|---------------|------------|---------------|------------|
|------------|---------------|------------|---------------|------------|
|-9\---------|-7-9-9-9--9--7-|-9\---------|-7-9-9-9--9--7-|-9\---------|
|-9\---------|-7-9-9-9--9--7-|-9\---------|-7-9-9-9--9--7-|-9\---------|
|-9\---------|-7h9-9-9--9--7h|=9\---------|-7h9-9-9--9--7h|=9\---------|


  A5B5            G5             A5
  E E E Q  Q  E   Q.   Q  Q  E   Q.   Q  Q  E
|---------------|--------------|--------------|
|---------------|--------------|--------------|
|---------------|--------------|--------------|
|-7-9-9-9--9--9-|-5----5--5--5-|-7----7--7--7-|
|-7-9-9-9--9--9-|-5----5--5--5-|-7----7--7--7-|
|-7h9-9-9--9--9-|-5----5--5--5-|-7----7--7--7-|


   Chorus
    A5B5              N.C.                A5B5              N.C.
    E E E E E E E E   E  E  E E E E E E   E E E E E E E E   E  E  E E E E E E
||------------------|-------------------|-----------------|-------------------|
||o-----------------|-------------------|-----------------|-------------------|
||------------------|-------------------|-----------------|-------------------|
||--7-9-9-9-9-9-9-9-|-------------------|-7-9-9-9-9-9-9-9-|-------------------|
||o-7-9-9-9-9-9-9-9-|-9h12-12-9-7-7-7-7-|-7-9-9-9-9-9-9-9-|-9h12-12-9-7-7-7-7-|
||--7h9-9-9-9-9-9-9-|-------------------|-7h9-9-9-9-9-9-9-|-------------------|


  A5B5              N.C.                G5                A5
  E E E E E E E E   E  E  E E E E E E   E E E E E E E E   E E E E E E E E
|-----------------|-------------------|-----------------|-------------------||
|-----------------|-------------------|-----------------|------------------o||
|-----------------|-------------------|-----------------|-------------------||
|-7-9-9-9-9-9-9-9-|-------------------|-5-5-5-5-5-5-5-5-|-7-7-7-7-7-7-7-7---||
|-7-9-9-9-9-9-9-9-|-9h12-12-9-7-7-7-7-|-5-5-5-5-5-5-5-5-|-7-7-7-7-7-7-7-7--o||
|-7h9-9-9-9-9-9-9-|-------------------|-5-5-5-5-5-5-5-5-|-7-7-7-7-7-7-7-7---||


 Out-Chorus
  B5                A5        B5       G5                F#5       D5
  H       H         H       E Q.       H       H         H       E Q.
|-----------------|------------------|-----------------|-------------------|
|-----------------|------------------|-----------------|-------------------|
|-----------------|------------------|-----------------|-------------------|
|-9-------9-------|-7-------7-9------|-5-------5-------|-4-------4-0-------|
|-9-------9-------|-7-------7-9------|-5-------5-------|-4-------4-0-------|
|-9-------9-------|-7-------7-9------|-5-------5-------|-4-------4-0-------|
|
| Gtr II
| E E E E E E E E   E E E E E E  E E   E E E E E E E E   E E E E E E  E E
|-----------------|------------------|-----------------|-------------------|
|-----------------|------------------|-----------------|-------------------|
|-4-4-4-4-4-4-4-4-|-6-6-6-6-6-6--6-6-|-7-7-7-7-7-7-7-7-|-9-9-9-9-9-9--9-9--|
|-x-x-x-x-x-x-x-x-|-x-x-x-x-x-x--x-x-|-x-x-x-x-x-x-x-x-|-x-x-x-x-x-x--x-x--|
|-2-2-2-2-2-2-2-2-|-4-4-4-4-4-4--4-4-|-5-5-5-5-5-5-5-5-|-7-7-7-7-7-7--7-7--|
|-----------------|------------------|-----------------|-------------------|


  B5                        A5             B5
   H           H             H           E  Q.
|-------------------------|--------------------------|
|-------------------------|--------------------------|
|-------------------------|--------------------------|
|--9-----------9----------|--7-----------7--9--------|
|--9-----------9----------|--7-----------7--9--------|
|--9-----------9----------|--7-----------7--9--------|
|
|  E  E  E  E  E  E  E  E    E  E  E  E  E  E   E  E
|-------------------------|--------------------------|
|-------------------------|--------------------------|
|-11-11-11-11-11-11-11-11-|-14-14-14-14-14-14--14-14-|
|--x--x--x--x--x--x--x--x-|--x--x--x--x--x--x---x--x-|
|--9--9--9--9--9--9--9--9-|-12-12-12-12-12-12--12-12-|
|-------------------------|--------------------------|


  G5                        F#5            D5
   H           H             H           E  Q.
|-------------------------|---------------------------|
|-------------------------|---------------------------|
|-------------------------|---------------------------|
|--5-----------5----------|--4-----------4--0---------|
|--5-----------5----------|--4-----------4--0---------|
|--5-----------5----------|--4-----------4--0---------|
|
|  E  E  E  E  E  E  E  E    E  E  E  E  E  E   E  E
|-------------------------|---------------------------|
|-------------------------|---------------------------|
|-16-16-16-16-16-16-16-16-|-18-18-18-18-18-18--18-18--|
|--x--x--x--x--x--x--x--x-|--x--x--x--x--x--x---x--x--|
|-14-14-14-14-14-14-14-14-|-16-16-16-16-16-16--16-16--|
|-------------------------|---------------------------|


  A5 B5                     A5 B5
   E  E  E  E  E  E  E  E    E  E  E  E  E  E  E  E
|-------------------------|-------------------------|
|-------------------------|-------------------------|
|-------------------------|-------------------------|
|--7--9--9--9--9--9-------|--7--9--9--9--9--9-------|
|--7--9--9--9--9--9-------|--7--9--9--9--9--9-------|
|--7h=9--9--9--9--9-------|--7h=9--9--9--9--9-------|
|
|  E  E  E  E  E  E  E  E    E  E  E  E  E  E  E  E
|-------------------------|-------------------------|
|-------------------------|-------------------------|
|-19-19-19-19-19-19-19-19-|-18-18-18-18-18-18-18-18-|
|--x--x--x--x--x--x--x--x-|--x--x--x--x--x--x--x--x-|
|-17-17-17-17-17-17-17-17-|-16-16-16-16-16-16-16-16-|
|-------------------------|-------------------------|


  A5 B5                     A5 B5
   E  E  E  E  E  E  E  E    E  E  E  E  E  E E E
|-------------------------|------------------------*|
|-------------------------|------------------------*|
|-------------------------|------------------------*|
|--7--9--9--9--9--9-------|--7--9--9--9--9--9------*|
|--7--9--9--9--9--9-------|--7--9--9--9--9--9------*|
|--7h=9--9--9--9--9-------|--7h=9--9--9--9--9------*|
|
|  E  E  E  E  E  E  E  E    E  E  E  E  E  E E E
|-------------------------|------------------------*|
|-------------------------|------------------------*|
|-16-16-16-16-16-16-16-16-|-14-14-14-14-14-11------*|
|--x--x--x--x--x--x--x--x-|--x--x--x--x--x--x------*|
|-14-14-14-14-14-14-14-14-|-12-12-12-12-12--9------*|
|-------------------------|------------------------*|




--------------------------------------------------------------------------------


Duration Legend
---------------
W - whole; H - half; Q - quarter; E - 8th; S - 16th; T - 32nd; X - 64th; a - acciaccatura
+ - note tied to previous; . - note dotted; .. - note double dotted
Uncapitalized letters represent notes that are staccato (1/2 duration)
Irregular groupings are notated above the duration line
Duration letters will always appear directly above the note/fret number it represents the
duration for.  Duration letters with no fret number below them represent rests.  Multi-
bar rests are notated in the form Wxn, where n is the number of bars to rest for.  Low
melody durations appear below the staff

Tablature Legend
----------------
 h   - hammer-on
 p   - pull-off
 b   - bend
 pb  - pre-bend
 r   - bend release (if no number after the r, then release immediately)
 /\  - slide into or out of (from/to "nowhere")
 s   - legato slide
 S   - shift slide
 - natural harmonic
[n]  - artificial harmonic
n(n) - tapped harmonic
 ~   - vibrato
 tr  - trill
 T   - tap
 TP  - trem. picking
 PM  - palm muting
\n/  - tremolo bar dip; n = amount to dip
 \n  - tremolo bar down
 n/  - tremolo bar up
/n\  - tremolo bar inverted dip
 =   - hold bend; also acts as connecting device for hammers/pulls
 <> - volume swell (louder/softer)
 x   - on rhythm slash represents muted slash
 o   - on rhythm slash represents single note slash

Misc Legend
-----------
 |  - bar
||  - double bar
||o - repeat start
o|| - repeat end
*|  - double bar (ending)
 :  - bar (freetime)
 $  - Segno
 &  - Coda
Tempo markers -  = BPM(8/16=s8/s16), where s8 = swing 8ths, s16 = swing 16ths





Comments


Popular Papa Roach tabs & chords
Blood Brothers 4 Bass Tabs
My Heart Is A Fist 2 Bass Tabs
Revenge Bass Tabs
Scars Chords
Black Clouds Tabs
Hollywood Whore 1 Tabs
Naked In Front Of The Computer Tabs
Thrown Away 2 Tabs
Time And Time Again 1 Tabs
Carry Me 2 Ukulele


Song lyrics



↑ Back to top | Tablatures and chords are parodies/interpretations of the original songs. You may use it for private study, scholarship, research or language learning purposes only
© 2014 AZChords.com Contact us | Privacy policy | DMCA | Add/correct tabs | Request tabs | Top 50 tabs