>
 >
Black Clouds 2

Black Clouds 2 Guitar Tabs

Papa Roach - Black Clouds 2 chords, tabs, tablatures, lyrics

Guitar lessons | Add/correct | Request | Top 50 tabs Artists:  A B C D E F G H I J K L M N O P Q R S T U V W X Y Z 0-9

Black Clouds 2 Guitar Tabs – Papa Roach

CD, Sheet music, Poster

Do you like Black Clouds 2? Share with your friends now
Bass TabsTabsTabs v2Tabs v3
Gtr I (C# G# C# F# A# D#) - 'Jerry - Background'
Gtr II (C# G# C# F# A# D#) - 'Jerry Main'
Gtr III (C# G# C# F# A# D#) - 'Jerry - 2nd '
Gtr IV (C# G# C# F# A# D#) - 'Untitled'
Gtr V (C# G# C# F# A# D#) - 'Untitled'


 Intro
  Q=103
     N.C.
 4/4
     Gtr I
  E. S E. S E. S E. S   E. S E. S E. S E. S
|---------------------|---------------------|
|---------------------|---------------------|
|---------------------|---------------------|
|----7-9--7-9--7-9--7-|-9--7-9--7-9--7-9--7-|
|---------------------|---------------------|
|---------------------|---------------------|


   Verse
    B5
   4/4
    Gtr II
    W                   +H       +Q   Q
||--------------------|------------------|
||o-------------------|------------------|
||--------------------|------------------|
||--9-----------------|-(9)------(9)--9--|
||o-9-----------------|-(9)------(9)--9--|
||--9-----------------|-(9)------(9)--9--|
|
|   Gtr III
|   E. E. E E. E. E      E. E. E  H
||--------------------|------------------|
||o-------------------|-10---------------|
||-----7----9--7------|-----7----11------|
||--9-----9-------9---|--------9---------|
||o-------------------|------------------|
||--------------------|------------------|


  B5/F#
  W                   +H       +Q   Q
|-------------------|-------------------|
|-------------------|-------------------|
|-------------------|-------------------|
|-4-----------------|-(4)------(4)--4---|
|-2-----------------|-(2)------(2)--2---|
|-4-----------------|-(4)------(4)--4---|
|
| E. E. E E. E. E      E. E. E  H
|-------------------|-------------------|
|-------------------|-10----------------|
|----7----9--7------|-----7----11-------|
|-9-----9-------9---|--------9----------|
|-------------------|-------------------|
|-------------------|-------------------|


  B5
  W                   +H       +Q   Q
|-------------------|------------------|
|-------------------|------------------|
|-------------------|------------------|
|-9-----------------|-(9)------(9)--9--|
|-9-----------------|-(9)------(9)--9--|
|-9-----------------|-(9)------(9)--9--|
|
| E. E. E E. E. E      E. E. E  H
|-------------------|------------------|
|-------------------|-10---------------|
|----7----9--7------|-----7----11------|
|-9-----9-------9---|--------9---------|
|-------------------|------------------|
|-------------------|------------------|


  G5
  W                   +H       +Q   Q
|-------------------|-------------------||
|-------------------|------------------o||
|-------------------|-------------------||
|-5-----------------|-(5)------(5)--5---||
|-5-----------------|-(5)------(5)--5--o||
|-5-----------------|-(5)------(5)--5---||
|
| E. E. E E. E. E      E. E. E  H
|-------------------|-------------------||
|-------------------|-10---------------o||
|----7----9--7------|-----7----11-------||
|-9-----9-------9---|--------9----------||
|-------------------|------------------o||
|-------------------|-------------------||


  E5                   D5                 E5                   D5
  W                     W                 W                     H        H
|--------------------|------------------|--------------------|----------------|
|--------------------|------------------|--------------------|----------------|
|--------------------|------------------|--------------------|----------------|
|-2------------------|--0---------------|-2------------------|--0--------0----|
|-2------------------|--0---------------|-2------------------|--0--------0----|
|-2------------------|--0---------------|-2------------------|--0--------0----|
|
| E.  E. E E. E. E      E. E. E  H        E.  E. E E. E. E      E. E. E  H
|--------------------|------------------|--------------------|----------------|
|--------------------|-10---------------|--------------------|-10-------------|
|-----7----9--7------|-----7----11------|-----7----9--7------|-----7----11----|
|-9------9-------9---|--------9---------|-9------9-------9---|--------9-------|
|--------------------|------------------|--------------------|----------------|
|--------------------|------------------|--------------------|----------------|
|
| Gtr I
| H..            E      E. H.        S    H..            E      E. E. E  H
|--------------------|------------------|--------------------|----------------|
|--------------------|------------------|--------------------|----------------|
|--------------------|--9--7------------|--------------------|--9--7--6-11----|
|----------------x---|------------------|----------------x---|----------------|
|----------------x---|--7--5------------|----------------x---|--7--5--4--9----|
|----------------x---|------------------|----------------x---|----------------|


  E5                   D5
  W                     W
|--------------------|------------------|
|--------------------|------------------|
|--------------------|------------------|
|-2------------------|--0---------------|
|-2------------------|--0---------------|
|-2------------------|--0---------------|
|
| E.  E. E E. E. E      E. E. E  H
|--------------------|------------------|
|--------------------|-10---------------|
|-----7----9--7------|-----7----11------|
|-9------9-------9---|--------9---------|
|--------------------|------------------|
|--------------------|------------------|
|
| H..            E      E. H.        S
|--------------------|------------------|
|--------------------|------------------|
|--------------------|--9--7------------|
|----------------x---|------------------|
|----------------x---|--7--5------------|
|----------------x---|------------------|


  E5                   G5         F#5
  W                     H          H
|--------------------|---------------------------|
|--------------------|---------------------------|
|--------------------|---------------------------|
|-2------------------|--5----------4-------------|
|-2------------------|--5----------4-------------|
|-2------------------|--5----------4-------------|
|
| E.  E. E E. E. E      E.  E.  E  H
|--------------------|---------------------------|
|--------------------|-10------------------------|
|-----7----9--7------|------7-----11-------------|
|-9------9-------9---|----------9----------------|
|--------------------|---------------------------|
|--------------------|---------------------------|
|
| H..            E      E.  E.  E  Q   +E   +E
|--------------------|---------------------------|
|--------------------|---------------------------|
|--------------------|-14--12--11-11--(11)-(11)\-|
|----------------x---|---------------------------|
|----------------x---|-12--10---9--9---(9)--(9)\-|
|----------------x---|---------------------------|


 Pre-Chorus
  E5      F#5       G5      E5/A
                                  2/4
  E. E. E E. E. E   E. E. E H      H
|-----------------|--------------|------|
|-----------------|--------------|------|
|-----------------|--------------|------|
|-2--2--2-4--4--4-|-5--5--5-9----|-9----|
|-2--2--2-4--4--4-|-5--5--5-7----|-7----|
|-2--2--2-4--4--4-|-5--5--5-7----|-7----|


   Chorus
    A5B5    F#5D5E5        D5  G5      D5D5E5        D5
   4/4
    S S S E  E S S S E E S S   S S E S E S S S E E S S
||---------------------------|--------------------------||
||o--------------------------|-------------------------o||
||---------------------------|--------------------------||
||--7h9-9-9-11-0-2-2-2-2-2-0-|-5-5-5-5-7-0-2-2-2-2-2-0--||
||o-7h9-9-9--9-0-2-2-2-2-2-0-|-5-5-5-5-5-0-2-2-2-2-2-0-o||
||--7h9-9-9--9-0-2-2-2-2-2-0-|-5-5-5-5-5-0-2-2-2-2-2-0--||


  A5B5   F#5D5E5        D5G5     D5E5      D5
  S S E.  E S E. E. E   S S E. E S E. E. S S
|---------------------|----------------------|
|---------------------|----------------------|
|---------------------|----------------------|
|-7h9-9--11-0-2--2--2-|-0-5-5--5-0-2--2--2-0-|
|-7h9-9---9-0-2--2--2-|-0-5-5--5-0-2--2--2-0-|
|-7h9-9---9-0-2--2--2-|-0-5-5--5-0-2--2--2-0-|


  A5B5   F#5D5E5        D5G5     D5E5      D5
  S S E.  E S E. E. E   S S E. E S E. E. S S
|---------------------|-----------------------|
|---------------------|-----------------------|
|---------------------|-----------------------|
|-7h9-9--11-0-2--2--2-|-0-5-5--5-0-2--2--2-0--|
|-7h9-9---9-0-2--2--2-|-0-5-5--5-0-2--2--2-0--|
|-7h9-9---9-0-2--2--2-|-0-5-5--5-0-2--2--2-0--|


 Verse
  B5                                     B5/F#
  Gtr II
  W                   +H       +Q   Q    W                   +H       +Q   Q
|-------------------|------------------|-------------------|------------------|
|-------------------|------------------|-------------------|------------------|
|-------------------|------------------|-------------------|------------------|
|-9-----------------|-(9)------(9)--9--|-4-----------------|-(4)------(4)--4--|
|-9-----------------|-(9)------(9)--9--|-2-----------------|-(2)------(2)--2--|
|-9-----------------|-(9)------(9)--9--|-4-----------------|-(4)------(4)--4--|
|
| Gtr III
| E. E. E E. E. E      E. E. E  H        E. E. E E. E. E      E. E. E  H
|-------------------|------------------|-------------------|------------------|
|-------------------|-10---------------|-------------------|-10---------------|
|----7----9--7------|-----7----11------|----7----9--7------|-----7----11------|
|-9-----9-------9---|--------9---------|-9-----9-------9---|--------9---------|
|-------------------|------------------|-------------------|------------------|
|-------------------|------------------|-------------------|------------------|


  B5                                     G5
  W                   +H       +Q   Q    W                   +H       +Q   Q
|-------------------|------------------|-------------------|------------------|
|-------------------|------------------|-------------------|------------------|
|-------------------|------------------|-------------------|------------------|
|-9-----------------|-(9)------(9)--9--|-5-----------------|-(5)------(5)--5--|
|-9-----------------|-(9)------(9)--9--|-5-----------------|-(5)------(5)--5--|
|-9-----------------|-(9)------(9)--9--|-5-----------------|-(5)------(5)--5--|
|
| E. E. E E. E. E      E. E. E  H        E. E. E E. E. E      E. E. E  H
|-------------------|------------------|-------------------|------------------|
|-------------------|-10---------------|-------------------|-10---------------|
|----7----9--7------|-----7----11------|----7----9--7------|-----7----11------|
|-9-----9-------9---|--------9---------|-9-----9-------9---|--------9---------|
|-------------------|------------------|-------------------|------------------|
|-------------------|------------------|-------------------|------------------|


  E5                   D5                 E5                   D5
  W                     W                 W                     H        H
|--------------------|------------------|--------------------|----------------|
|--------------------|------------------|--------------------|----------------|
|--------------------|------------------|--------------------|----------------|
|-2------------------|--0---------------|-2------------------|--0--------0----|
|-2------------------|--0---------------|-2------------------|--0--------0----|
|-2------------------|--0---------------|-2------------------|--0--------0----|
|
| E.  E. E E. E. E      E. E. E  H        E.  E. E E. E. E      E. E. E  H
|--------------------|------------------|--------------------|----------------|
|--------------------|-10---------------|--------------------|-10-------------|
|-----7----9--7------|-----7----11------|-----7----9--7------|-----7----11----|
|-9------9-------9---|--------9---------|-9------9-------9---|--------9-------|
|--------------------|------------------|--------------------|----------------|
|--------------------|------------------|--------------------|----------------|
|
| Gtr I
| H..            E      E. H.        S    H..            E      E. E. E  H
|--------------------|------------------|--------------------|----------------|
|--------------------|------------------|--------------------|----------------|
|--------------------|--9--7------------|--------------------|--9--7--6-11----|
|----------------x---|------------------|----------------x---|----------------|
|----------------x---|--7--5------------|----------------x---|--7--5--4--9----|
|----------------x---|------------------|----------------x---|----------------|


  E5                   D5
  W                     W
|--------------------|------------------|
|--------------------|------------------|
|--------------------|------------------|
|-2------------------|--0---------------|
|-2------------------|--0---------------|
|-2------------------|--0---------------|
|
| E.  E. E E. E. E      E. E. E  H
|--------------------|------------------|
|--------------------|-10---------------|
|-----7----9--7------|-----7----11------|
|-9------9-------9---|--------9---------|
|--------------------|------------------|
|--------------------|------------------|
|
| H..            E      E. H.        S
|--------------------|------------------|
|--------------------|------------------|
|--------------------|--9--7------------|
|----------------x---|------------------|
|----------------x---|--7--5------------|
|----------------x---|------------------|


  E5                   G5         F#5
  W                     H          H
|--------------------|---------------------------|
|--------------------|---------------------------|
|--------------------|---------------------------|
|-2------------------|--5----------4-------------|
|-2------------------|--5----------4-------------|
|-2------------------|--5----------4-------------|
|
| E.  E. E E. E. E      E.  E.  E  H
|--------------------|---------------------------|
|--------------------|-10------------------------|
|-----7----9--7------|------7-----11-------------|
|-9------9-------9---|----------9----------------|
|--------------------|---------------------------|
|--------------------|---------------------------|
|
| H..            E      E.  E.  E  Q   +E   +E
|--------------------|---------------------------|
|--------------------|---------------------------|
|--------------------|-14--12--11-11--(11)-(11)\-|
|----------------x---|---------------------------|
|----------------x---|-12--10---9--9---(9)--(9)\-|
|----------------x---|---------------------------|


 Pre-Chorus
  E5      F#5       G5      E5/A
                                  2/4
  E. E. E E. E. E   E. E. E H      H
|-----------------|--------------|------|
|-----------------|--------------|------|
|-----------------|--------------|------|
|-2--2--2-4--4--4-|-5--5--5-9----|-9----|
|-2--2--2-4--4--4-|-5--5--5-7----|-7----|
|-2--2--2-4--4--4-|-5--5--5-7----|-7----|


   Chorus
    A5B5    F#5D5E5        D5  G5      D5D5E5        D5
   4/4
    S S S E  E S S S E E S S   S S E S E S S S E E S S
||---------------------------|--------------------------||
||o--------------------------|-------------------------o||
||---------------------------|--------------------------||
||--7h9-9-9-11-0-2-2-2-2-2-0-|-5-5-5-5-7-0-2-2-2-2-2-0--||
||o-7h9-9-9--9-0-2-2-2-2-2-0-|-5-5-5-5-5-0-2-2-2-2-2-0-o||
||--7h9-9-9--9-0-2-2-2-2-2-0-|-5-5-5-5-5-0-2-2-2-2-2-0--||


  A5B5   F#5D5E5        D5G5     D5E5      D5
  S S E.  E S E. E. E   S S E. E S E. E. S S
|---------------------|----------------------|
|---------------------|----------------------|
|---------------------|----------------------|
|-7h9-9--11-0-2--2--2-|-0-5-5--5-0-2--2--2-0-|
|-7h9-9---9-0-2--2--2-|-0-5-5--5-0-2--2--2-0-|
|-7h9-9---9-0-2--2--2-|-0-5-5--5-0-2--2--2-0-|


  A5B5   F#5D5E5        D5G5     D5E5      D5
  S S E.  E S E. E. E   S S E. E S E. E. S S
|---------------------|-----------------------|
|---------------------|-----------------------|
|---------------------|-----------------------|
|-7h9-9--11-0-2--2--2-|-0-5-5--5-0-2--2--2-0--|
|-7h9-9---9-0-2--2--2-|-0-5-5--5-0-2--2--2-0--|
|-7h9-9---9-0-2--2--2-|-0-5-5--5-0-2--2--2-0--|


  E5      F#5       G5      E5/A
                                  2/4
  E. E. E E. E. E   E. E. E H      H
|-----------------|--------------|------|
|-----------------|--------------|------|
|-----------------|--------------|------|
|-2--2--2-4--4--4-|-5--5--5-9----|-9----|
|-2--2--2-4--4--4-|-5--5--5-7----|-7----|
|-2--2--2-4--4--4-|-5--5--5-7----|-7----|


 Interlude
  B5
 4/4
  W                           +H            +Q    Q
|---------------------------|--------------------------|
|---------------------------|--------------------------|
|---------------------------|--------------------------|
|-9-------------------------|-(9)-----------(9)---9----|
|-9-------------------------|-(9)-----------(9)---9----|
|-9-------------------------|-(9)-----------(9)---9----|
|
| Gtr III
| E. E.    E   E. E.    E      E. E.    E    H
|---------------------------|--------------------------|
|---------------------------|-10-----------------------|
|----7---------9--7---------|-----7---------11---------|
|-9--------9------------9---|-----------9--------------|
|---------------------------|--------------------------|
|---------------------------|--------------------------|
|
| Gtr I
|    <
| E. S  E.   S E. S  E.   S    E. S  E.   S  E. S E. S
|---------------------------|--------------------------|
|---------------------------|--------------------------|
|---------------------------|--------------------------|
|----7--9----7-9--7--9----7-|--9--7--9----7--9--7-9--7-|
|---------------------------|--------------------------|
|---------------------------|--------------------------|


  G5
  W                           +W
|---------------------------|---------------------------|
|---------------------------|---------------------------|
|---------------------------|---------------------------|
|-5-------------------------|-(5)-----------------------|
|-5-------------------------|-(5)-----------------------|
|-5-------------------------|-(5)-----------------------|
|
| E. E.    E   E. E.    E      E. E.    E    H
|---------------------------|---------------------------|
|---------------------------|-10------------------------|
|----7---------9--7---------|-----7---------11----------|
|-9--------9------------9---|-----------9---------------|
|---------------------------|---------------------------|
|---------------------------|---------------------------|
|
| E. S  E.   S E. S  E.   S    E. S  E.   S  E. S E. S
|---------------------------|---------------------------|
|---------------------------|---------------------------|
|---------------------------|---------------------------|
|-9--7--9----7-9--7--9----7-|--9--7--9----7--9--7-9--7--|
|---------------------------|---------------------------|
|---------------------------|---------------------------|


 Bridge
  E5/A        Dsus4/G     E5/A        G5/C
  Gtr IV
   W           W           W           W
|-----------|-^5--------|-----------|-^3-------------------|
|-^5--------|-^3--------|-^5--------|----------------------|
|-^4--------|-^0--------|-^4--------|-^7-------------------|
|-^2--------|-^5--------|-^2--------|-^5-------------------|
|-^0--------|-----------|-^0--------|-^3-------------------|
|-----------|-----------|-----------|----------------------|
|
| Gtr I
|  W           W           W           Q.   E  E.  E.  E
|-----------|-----------|-----------|----------------------|
|-----------|-----------|-----------|----------------------|
|-----------|-----------|-----------|---------14--12--11---|
|-----------|-----------|-----------|-------x--------------|
|-----------|-----------|-----------|-------x-12--10---9---|
|-----------|-----------|-----------|-------x--------------|


  E5/A          Dsus4/G     E5/A        G5/C
   W             W           W           W
|-------------|-^5--------|-----------|-^3-------------------|
|-^5----------|-^3--------|-^5--------|----------------------|
|-^4----------|-^0--------|-^4--------|-^7-------------------|
|-^2----------|-^5--------|-^2--------|-^5-------------------|
|-^0----------|-----------|-^0--------|-^3-------------------|
|-------------|-----------|-----------|----------------------|
|
|  Q  Q  H       W           W           Q.   E  E.  E.  E
|-------------|-----------|-----------|----------------------|
|-------------|-----------|-----------|----------------------|
|-11----------|-----------|-----------|---------14--12--11---|
|-------------|-----------|-----------|-------x--------------|
|--9----------|-----------|-----------|-------x-12--10---9---|
|-------------|-----------|-----------|-------x--------------|
|
| Gtr II
|  W             W           W           W
|-------------|-----------|-----------|----------------------|
|-------------|-^3--------|-----------|----------------------|
|-^4----------|-^0--------|-^4--------|-^7-------------------|
|-^2----------|-^5--------|-^2--------|-^5-------------------|
|-^0----------|-----------|-^0--------|-^3-------------------|
|-------------|-----------|-----------|----------------------|


 Pre-Chorus
  E5      F#5        G5      E5/A
                                    2/4
  Gtr II
  E. E. E E. E. E    E. E. E  H       H
|------------------|---------------|-------|
|------------------|---------------|-------|
|------------------|---------------|-------|
|-2--2--2-4--4--4--|-5--5--5--9----|--9----|
|-2--2--2-4--4--4--|-5--5--5--7----|--7----|
|-2--2--2-4--4--4--|-5--5--5--7----|--7----|
|
| Gtr V
| H       H          H        H       H
|------------------|---------------|-------|
|-5-------7--------|-8-------10----|-10----|
|------------------|---------------|-------|
|-2-------4--------|-5--------7----|--7----|
|------------------|---------------|-------|
|------------------|---------------|-------|


   Chorus
    A5B5    F#5D5E5        D5  G5      D5D5E5        D5
   4/4
    S S S E  E S S S E E S S   S S E S E S S S E E S S
||---------------------------|--------------------------||
||o--------------------------|-------------------------o||
||---------------------------|--------------------------||
||--7h9-9-9-11-0-2-2-2-2-2-0-|-5-5-5-5-7-0-2-2-2-2-2-0--||
||o-7h9-9-9--9-0-2-2-2-2-2-0-|-5-5-5-5-5-0-2-2-2-2-2-0-o||
||--7h9-9-9--9-0-2-2-2-2-2-0-|-5-5-5-5-5-0-2-2-2-2-2-0--||


    A5B5D5 B5D5    B5D5E5        D5  G5      D5D5E5        D5
    S S  S S  S  S S S S S E E S S   S S E S E S S S E E S S
||---------------------------------|-------------------------|
||o--------------------------------|-------------------------|
||---------------------------------|-------------------------|
||--7h9-12-9-12-12-9-0-2-2-2-2-2-0-|-5-5-5-5-7-0-2-2-2-2-2-0-|
||o-7h9-12-9-12-12-9-0-2-2-2-2-2-0-|-5-5-5-5-5-0-2-2-2-2-2-0-|
||--7h9-12-9-12-12-9-0-2-2-2-2-2-0-|-5-5-5-5-5-0-2-2-2-2-2-0-|


  A5B5    F#5D5E5        D5  G5      D5D5E5        D5
  S S S E  E S S S E E S S   S S E S E S S S E E S S
|--------------------------|--------------------------||
|--------------------------|-------------------------o||
|--------------------------|--------------------------||
|-7h9-9-9-11-0-2-2-2-2-2-0-|-5-5-5-5-7-0-2-2-2-2-2-0--||
|-7h9-9-9--9-0-2-2-2-2-2-0-|-5-5-5-5-5-0-2-2-2-2-2-0-o||
|-7h9-9-9--9-0-2-2-2-2-2-0-|-5-5-5-5-5-0-2-2-2-2-2-0--||


 Outro
  E5      F#5         G5      E5/A
                                     2/4
  E. E. E E. E. E     E. E. E H        H
|-------------------|---------------|-------|
|-------------------|---------------|-------|
|-------------------|---------------|-------|
|-2--2--2-4--4--4---|-5--5--5-9-----|--9----|
|-2--2--2-4--4--4---|-5--5--5-7-----|--7----|
|-2--2--2-4--4--4---|-5--5--5-7-----|--7----|
|
| Gtr V
|                                      <
| W                   W                H
|-------------------|---------------|-------|
|-------------------|---------------|-10----|
|-------------------|---------------|-------|
|-------------------|---------------|--7----|
|-------------------|---------------|-------|
|-------------------|---------------|-------|


  B5                                     B5/F#
 4/4
  Gtr II
                                                     >
  W                   +H       +Q   Q    W          +W
|-------------------|------------------|----------|--------*|
|-------------------|------------------|----------|--------*|
|-------------------|------------------|----------|--------*|
|-9-----------------|-(9)------(9)--9--|-4--------|-(4)----*|
|-9-----------------|-(9)------(9)--9--|-2--------|-(2)----*|
|-9-----------------|-(9)------(9)--9--|-4--------|-(4)----*|
|
| Gtr III
| E. E. E E. E. E      E. E. E  H        W           W
|-------------------|------------------|----------|--------*|
|-------------------|-10---------------|----------|--------*|
|----7----9--7------|-----7----11------|----------|--------*|
|-9-----9-------9---|--------9---------|----------|--------*|
|-------------------|------------------|----------|--------*|
|-------------------|------------------|----------|--------*|




--------------------------------------------------------------------------------


Duration Legend
---------------
W - whole; H - half; Q - quarter; E - 8th; S - 16th; T - 32nd; X - 64th; a - acciaccatura
+ - note tied to previous; . - note dotted; .. - note double dotted
Uncapitalized letters represent notes that are staccato (1/2 duration)
Irregular groupings are notated above the duration line
Duration letters will always appear directly above the note/fret number it represents the
duration for.  Duration letters with no fret number below them represent rests.  Multi-
bar rests are notated in the form Wxn, where n is the number of bars to rest for.  Low
melody durations appear below the staff

Tablature Legend
----------------
 h   - hammer-on
 p   - pull-off
 b   - bend
 pb  - pre-bend
 r   - bend release (if no number after the r, then release immediately)
 /\  - slide into or out of (from/to "nowhere")
 s   - legato slide
 S   - shift slide
 - natural harmonic
[n]  - artificial harmonic
n(n) - tapped harmonic
 ~   - vibrato
 tr  - trill
 T   - tap
 TP  - trem. picking
 PM  - palm muting
\n/  - tremolo bar dip; n = amount to dip
 \n  - tremolo bar down
 n/  - tremolo bar up
/n\  - tremolo bar inverted dip
 =   - hold bend; also acts as connecting device for hammers/pulls
 <> - volume swell (louder/softer)
 x   - on rhythm slash represents muted slash
 o   - on rhythm slash represents single note slash

Misc Legend
-----------
 |  - bar
||  - double bar
||o - repeat start
o|| - repeat end
*|  - double bar (ending)
 :  - bar (freetime)
 $  - Segno
 &  - Coda
Tempo markers -  = BPM(8/16=s8/s16), where s8 = swing 8ths, s16 = swing 16ths





Comments


Popular Papa Roach tabs & chords
Last Resort 5 Bass Tabs
Life Is A Bullet Bass Tabs
Not Listening Bass Tabs
Between Angels And Insects 1 Chords
Reckless 1 Chords
Gouge Away Drum Tabs
Broken Home 1 Tabs
Infest 2 Tabs
Kick In The Teeth 3 Tabs
Time And Time Again 2 Tabs


Song lyrics



↑ Back to top | Tablatures and chords are parodies/interpretations of the original songs. You may use it for private study, scholarship, research or language learning purposes only
© 2014 AZChords.com Contact us | Privacy policy | DMCA | Add/correct tabs | Request tabs | Top 50 tabs