>
 >
Binge

Binge Guitar Tabs

Papa Roach - Binge chords, tabs, tablatures, lyrics

Guitar lessons | Add/correct | Request | Top 50 tabs Artists:  A B C D E F G H I J K L M N O P Q R S T U V W X Y Z 0-9

Binge Guitar Tabs – Papa Roach

CD, Sheet music, Poster

Do you like Binge? Share with your friends now
Bass TabsTabsTabs v2Tabs v3Tabs v4
Gtr I (D A D G B E) - 'Untitled'
Gtr II (D A D G B E) - 'Untitled'
Gtr III (D A D G B E) - 'Untitled'


   Intro
    Q=94
    G5                             G5
   4/4
    Gtr I
    S S S S S  S  S  S  E.S  E.S   S S S S S  S  S  S  E.S  E.S
||-------------------------------|------------------------------|
||o------------------------------|------------------------------|
||--7-7-7-7---10-10-10-10---10---|-7-7-7-7---10-10-10-10---10---|
||--5-5-5-5----x--x--x--x----x---|-5-5-5-5----x--x--x--x----x---|
||o-5-5-5-5----8--8--8--8p0--8p0-|-5-5-5-5----8--8--8--8p0--8p0-|
||--5-5-5-5----------------------|-5-5-5-5----------------------|
|
|   Gtr II
|   S S S S Q           H          S S S S Q           H
||-------------------------------|------------------------------|
||o------------------------------|------------------------------|
||--7-7-7-7----------------------|-7-7-7-7----------------------|
||--5-5-5-5----------------------|-5-5-5-5----------------------|
||o-5-5-5-5----------------------|-5-5-5-5----------------------|
||--5-5-5-5----------------------|-5-5-5-5----------------------|


  Eb5                                   Eb5
  S S S S S  S  S  S  S S S S S S S S   S S S S S  S  S  S  S S S S S S S S
|-------------------------------------|--------------------------------------||
|-------------------------------------|-------------------------------------o||
|-3-3-3-3---10-10-10-10s8-8-8-8s7-7---|-3-3-3-3---10-10-10-10s8-8-8-8s7-7----||
|-1-1-1-1----x--x--x--x---x-x-x---x---|-1-1-1-1----x--x--x--x---x-x-x---x----||
|-1-1-1-1----8--8--8--8s6-6-6-6s5-5-0-|-1-1-1-1----8--8--8--8s6-6-6-6s5-5-0-o||
|-1-1-1-1-----------------------------|-1-1-1-1------------------------------||
|
| S S S S Q           H                 S S S S Q           H
|-------------------------------------|--------------------------------------||
|-------------------------------------|-------------------------------------o||
|-3-3-3-3-----------------------------|-3-3-3-3------------------------------||
|-1-1-1-1-----------------------------|-1-1-1-1------------------------------||
|-1-1-1-1-----------------------------|-1-1-1-1-----------------------------o||
|-1-1-1-1-----------------------------|-1-1-1-1------------------------------||


   Verse
    G5                             G5
    Gtrs I, II
    S S S S S S S S S E S E +E     S S S S S S S S S E S E +E
||-------------------------------|------------------------------|
||o------------------------------|------------------------------|
||--------------------7-5-8-(8)\-|-------------------7-5-8-(8)\-|
||--5-5-5-5-5-5-5-5---x-x-x------|-5-5-5-5-5-5-5-5---x-x-x------|
||o-5-5-5-5-5-5-5-5---5-3-6-(6)\-|-5-5-5-5-5-5-5-5---5-3-6-(6)\-|
||--5-5-5-5-5-5-5-5--------------|-5-5-5-5-5-5-5-5--------------|


  G5                             G5
  S S S S S S S S S E S E +E     S S S S S S S S S E S E +E
|------------------------------|------------------------------|
|------------------------------|------------------------------|
|-------------------7-5-8-(8)\-|-------------------7-5-8-(8)\-|
|-5-5-5-5-5-5-5-5---x-x-x------|-5-5-5-5-5-5-5-5---x-x-x------|
|-5-5-5-5-5-5-5-5---5-3-6-(6)\-|-5-5-5-5-5-5-5-5---5-3-6-(6)\-|
|-5-5-5-5-5-5-5-5--------------|-5-5-5-5-5-5-5-5--------------|


  Eb5                            Eb5
  S S S S S S S S S E S E +E     S S S S S S S S S E S E +E
|------------------------------|------------------------------|
|------------------------------|------------------------------|
|-3-3-3-3-3-3-3-3---7-5-8-(8)\-|-3-3-3-3-3-3-3-3---7-5-8-(8)\-|
|-1-1-1-1-1-1-1-1---x-x-x------|-1-1-1-1-1-1-1-1---x-x-x------|
|-1-1-1-1-1-1-1-1---5-3-6-(6)\-|-1-1-1-1-1-1-1-1---5-3-6-(6)\-|
|-1-1-1-1-1-1-1-1--------------|-1-1-1-1-1-1-1-1--------------|


  Eb5                            Eb5
  S S S S S S S S S E S E +E     S S S S S S S S S E S E E
|------------------------------|----------------------------||
|------------------------------|---------------------------o||
|-3-3-3-3-3-3-3-3---7-5-8-(8)\-|-3-3-3-3-3-3-3-3---7-5-8-7--||
|-1-1-1-1-1-1-1-1---x-x-x------|-1-1-1-1-1-1-1-1---x-x-x-x--||
|-1-1-1-1-1-1-1-1---5-3-6-(6)\-|-1-1-1-1-1-1-1-1---5-3-6-5-o||
|-1-1-1-1-1-1-1-1--------------|-1-1-1-1-1-1-1-1------------||


   Chorus
    $
    $$
    G5                          F5
     S  S S  S   S  S  S S  +S   S  S S  S S  S S
||------------------------------------------------|
||o-----------------------------------------------|
||---7--7-7--7---7--7--7-7--(7)--5--5-5--5-5--5-5-|
||---5--5-5--5---5--5--5-5--(5)--3--3-3--3-3--3-3-|
||o--5--5-5--5---5--5--5-5--(5)--3--3-3--3-3--3-3-|
||---5--5-5--5---5--5--5-5--(5)--3--3-3--3-3--3-3-|
|
|   Gtr III
|    E.      S  +E     E    +S   E.      E    E
||----------10-(10)---------------------10--------|
||o-----------------------------------------------|
||--12----------------12---(12)-10-----------10---|
||------------------------------------------------|
||o-----------------------------------------------|
||------------------------------------------------|


  G5                          F5             D5
   S  S S  S   S  S  S S  +S   S  S S  S S S S
|----------------------------------------------|
|----------------------------------------------|
|--7--7-7--7---7--7--7-7--(7)--5--5-5--5-5-5---|
|--5--5-5--5---5--5--5-5--(5)--3--3-3--3-3-3-0-|
|--5--5-5--5---5--5--5-5--(5)--3--3-3--3-3-3-0-|
|--5--5-5--5---5--5--5-5--(5)--3--3-3--3-3-3-0-|
|
|  E.      S  +E     E    +S   E.      Q
|---------10-(10)---------------------10-------|
|----------------------------------------------|
|-12----------------12---(12)-10---------------|
|----------------------------------------------|
|----------------------------------------------|
|----------------------------------------------|


                                         To Coda
                                         To Coda
  Eb5                         F5
   S  S S  S   S  S  S S  +S   S  S S  S S  S S
|-----------------------------------------------|
|-----------------------------------------------|
|--3--3-3--3---3--3--3-3--(3)--5--5-5--5-5--5-5-|
|--1--1-1--1---1--1--1-1--(1)--3--3-3--3-3--3-3-|
|--1--1-1--1---1--1--1-1--(1)--3--3-3--3-3--3-3-|
|--1--1-1--1---1--1--1-1--(1)--3--3-3--3-3--3-3-|
|
|  E.      S  +E     E    +S   E.      E    E
|---------10-(10)---------------------10--------|
|-11----------------11---(11)-10-----------10---|
|-----------------------------------------------|
|-----------------------------------------------|
|-----------------------------------------------|
|-----------------------------------------------|


  Eb5                         F5              D5
   S  S S  S   S  S  S S  +S   S  S S  S S  S S
|------------------------------------------------||
|-----------------------------------------------o||
|--3--3-3--3---3--3--3-3--(3)--5--5-5--5-5--5----||
|--1--1-1--1---1--1--1-1--(1)--3--3-3--3-3--3-0--||
|--1--1-1--1---1--1--1-1--(1)--3--3-3--3-3--3-0-o||
|--1--1-1--1---1--1--1-1--(1)--3--3-3--3-3--3-0--||
|
|  E.      S  +E     E    +S   E.      E    E
|---------10-(10)---------------------10---------||
|-11----------------11---(11)-10-----------10---o||
|------------------------------------------------||
|------------------------------------------------||
|-----------------------------------------------o||
|------------------------------------------------||


  G5                              G5
   S S S S S S S S S E S E +E       S  S S S S S S S S E S E +E
|-------------------------------|---------------------------------|
|-------------------------------|---------------------------------|
|--------------------7-5-8-(8)\-|----------------------7-5-8-(8)\-|
|--5-5-5-5-5-5-5-5---x-x-x------|---5--5-5-5-5-5-5-5---x-x-x------|
|--5-5-5-5-5-5-5-5---5-3-6-(6)\-|---5--5-5-5-5-5-5-5---5-3-6-(6)\-|
|--5-5-5-5-5-5-5-5--------------|---5--5-5-5-5-5-5-5--------------|
|
|  W                               +W
|-------------------------------|---------------------------------|
|-------------------------------|---------------------------------|
|-12----------------------------|-(12)----------------------------|
|-------------------------------|---------------------------------|
|-------------------------------|---------------------------------|
|-------------------------------|---------------------------------|


 Verse
  G5                             G5
  S S S S S S S S S E S E +E     S S S S S S S S S E S E +E
|------------------------------|------------------------------|
|------------------------------|------------------------------|
|-------------------7-5-8-(8)\-|-------------------7-5-8-(8)\-|
|-5-5-5-5-5-5-5-5---x-x-x------|-5-5-5-5-5-5-5-5---x-x-x------|
|-5-5-5-5-5-5-5-5---5-3-6-(6)\-|-5-5-5-5-5-5-5-5---5-3-6-(6)\-|
|-5-5-5-5-5-5-5-5--------------|-5-5-5-5-5-5-5-5--------------|


  G5                             G5
  S S S S S S S S S E S E +E     S S S S S S S S S E S E +E
|------------------------------|------------------------------|
|------------------------------|------------------------------|
|-------------------7-5-8-(8)\-|-------------------7-5-8-(8)\-|
|-5-5-5-5-5-5-5-5---x-x-x------|-5-5-5-5-5-5-5-5---x-x-x------|
|-5-5-5-5-5-5-5-5---5-3-6-(6)\-|-5-5-5-5-5-5-5-5---5-3-6-(6)\-|
|-5-5-5-5-5-5-5-5--------------|-5-5-5-5-5-5-5-5--------------|


  Eb5                            Eb5
  S S S S S S S S S E S E +E      S S S S S S S S S E S E +E
|------------------------------|-------------------------------|
|------------------------------|-------------------------------|
|-3-3-3-3-3-3-3-3---7-5-8-(8)\-|--3-3-3-3-3-3-3-3---7-5-8-(8)\-|
|-1-1-1-1-1-1-1-1---x-x-x------|--1-1-1-1-1-1-1-1---x-x-x------|
|-1-1-1-1-1-1-1-1---5-3-6-(6)\-|--1-1-1-1-1-1-1-1---5-3-6-(6)\-|
|-1-1-1-1-1-1-1-1--------------|--1-1-1-1-1-1-1-1--------------|
|
| Gtr III
| TP                              TP
| W                               W
|------------------------------|-------------------------------|
|-8----------------------------|-11----------------------------|
|-x----------------------------|--x----------------------------|
|-5----------------------------|--8----------------------------|
|------------------------------|-------------------------------|
|------------------------------|-------------------------------|


                                                     D.S. al Coda
  Eb5                             Eb5
   S S S S S S S S S E S E +E      S S S S S S S S   S   E  S  E  E
|-------------------------------|-----------------------------------||
|-------------------------------|-----------------------------------||
|--3-3-3-3-3-3-3-3---7-5-8-(8)\-|--3-3-3-3-3-3-3-3-------7--5--8--7-||
|--1-1-1-1-1-1-1-1---x-x-x------|--1-1-1-1-1-1-1-1-------x--x--x--x-||
|--1-1-1-1-1-1-1-1---5-3-6-(6)\-|--1-1-1-1-1-1-1-1-------5--3--6--5-||
|--1-1-1-1-1-1-1-1--------------|--1-1-1-1-1-1-1-1------------------||
|
| Gtr III
|  TP                              TP
|  W                               H                +S   E  S  E  E
|-------------------------------|-----------------------------------||
|-13----------------------------|-11---------------(11)-10-10-11-10-||
|--x----------------------------|--x---------------------x--x--x--x-||
|-10----------------------------|--8----------------(8)--7--7--8--7-||
|-------------------------------|-----------------------------------||
|-------------------------------|-----------------------------------||


  &
  Eb5                 F5
  S S S S S S S S +S  S S S S S S S
|-----------------------------------||
|-----------------------------------||
|-3-3-3-3-3-3-3-3-(3)-5-5-5-5-5-5-5-||
|-1-1-1-1-1-1-1-1-(1)-3-3-3-3-3-3-3-||
|-1-1-1-1-1-1-1-1-(1)-3-3-3-3-3-3-3-||
|-1-1-1-1-1-1-1-1-(1)-3-3-3-3-3-3-3-||
|
| W
|-----------------------------------||
|-----------------------------------||
|-----------------------------------||
|-----------------------------------||
|-----------------------------------||
|-----------------------------------||


 Interlude
  G5                             G5
  Gtr I
  S S S S S  S  S  S  E.S  E.S   S S S S S  S  S  S  E.S  E.S
|------------------------------|-------------------------------|
|------------------------------|-------------------------------|
|-7-7-7-7---10-10-10-10---10---|-7-7-7-7---10-10-10-10---10----|
|-5-5-5-5----x--x--x--x----x---|-5-5-5-5----x--x--x--x----x----|
|-5-5-5-5----8--8--8--8p0--8p0-|-5-5-5-5----8--8--8--8p0--8p0--|
|-5-5-5-5----------------------|-5-5-5-5-----------------------|
|
| Gtr II
| S S S S Q           H          S S S S Q           H
|------------------------------|-------------------------------|
|------------------------------|-------------------------------|
|-7-7-7-7----------------------|-7-7-7-7-----------------------|
|-5-5-5-5----------------------|-5-5-5-5-----------------------|
|-5-5-5-5----------------------|-5-5-5-5-----------------------|
|-5-5-5-5----------------------|-5-5-5-5-----------------------|


  Eb5                                   Eb5
  S S S S S  S  S  S  S S S S S S S S   S S S S S  S  S  S  S S S S S S S S
|-------------------------------------|-------------------------------------|
|-------------------------------------|-------------------------------------|
|-3-3-3-3---10-10-10-10s8-8-8-8s7-7---|-3-3-3-3---10-10-10-10s8-8-8-8s7-7---|
|-1-1-1-1----x--x--x--x---x-x-x---x---|-1-1-1-1----x--x--x--x---x-x-x---x---|
|-1-1-1-1----8--8--8--8s6-6-6-6s5-5-0-|-1-1-1-1----8--8--8--8s6-6-6-6s5-5-0-|
|-1-1-1-1-----------------------------|-1-1-1-1-----------------------------|
|
| S S S S Q           H                 S S S S Q           H
|-------------------------------------|-------------------------------------|
|-------------------------------------|-------------------------------------|
|-3-3-3-3-----------------------------|-3-3-3-3-----------------------------|
|-1-1-1-1-----------------------------|-1-1-1-1-----------------------------|
|-1-1-1-1-----------------------------|-1-1-1-1-----------------------------|
|-1-1-1-1-----------------------------|-1-1-1-1-----------------------------|


  G5                             G5
  Gtrs I, II
  S S S S S  S  S  S  E.S  E.S   S S S S S  S  S  S  E.S  E.S
|------------------------------|------------------------------|
|------------------------------|------------------------------|
|-7-7-7-7---10-10-10-10---10---|-7-7-7-7---10-10-10-10---10---|
|-5-5-5-5----x--x--x--x----x---|-5-5-5-5----x--x--x--x----x---|
|-5-5-5-5----8--8--8--8p0--8p0-|-5-5-5-5----8--8--8--8p0--8p0-|
|-5-5-5-5----------------------|-5-5-5-5----------------------|


  Eb5                                   Eb5
  S S S S S  S  S  S  S S S S S S S S   S S S S S  S  S  S  S S S S S S S S
|-------------------------------------|-------------------------------------||
|-------------------------------------|-------------------------------------||
|-3-3-3-3---10-10-10-10s8-8-8-8s7-7---|-3-3-3-3---10-10-10-10s8-8-8-8s7-7---||
|-1-1-1-1----x--x--x--x---x-x-x---x---|-1-1-1-1----x--x--x--x---x-x-x---x---||
|-1-1-1-1----8--8--8--8s6-6-6-6s5-5-0-|-1-1-1-1----8--8--8--8s6-6-6-6s5-5-0-||
|-1-1-1-1-----------------------------|-1-1-1-1-----------------------------||


 Bridge
  G5                Bb5            G5                Bb5
  S S S S S S S S S S S S S S E    S S S S S S S S S S S S S S E
|--------------------------------|--------------------------------|
|--------------------------------|--------------------------------|
|-7-7-7-7-7-7-7-7-7--------------|-7-7-7-7-7-7-7-7-7--------------|
|-5-5-5-5-5-5-5-5-5-8-8-8-8-8-8\-|-5-5-5-5-5-5-5-5-5-8-8-8-8-8-8\-|
|-5-5-5-5-5-5-5-5-5-8-8-8-8-8-8\-|-5-5-5-5-5-5-5-5-5-8-8-8-8-8-8\-|
|-5-5-5-5-5-5-5-5-5-8-8-8-8-8-8\-|-5-5-5-5-5-5-5-5-5-8-8-8-8-8-8\-|


  Eb5
  S S S S S S S S S S S S S S S S   S S S S S S S S S S S S S S S S
|---------------------------------|---------------------------------|
|---------------------------------|---------------------------------|
|-3-3-3-3-3-3-3-3-3-3-3-3-3-3-3-3-|-3-3-3-3-3-3-3-3-3-3-3-3-3-3-3-3-|
|-1-1-1-1-1-1-1-1-1-1-1-1-1-1-1-1-|-1-1-1-1-1-1-1-1-1-1-1-1-1-1-1-1-|
|-1-1-1-1-1-1-1-1-1-1-1-1-1-1-1-1-|-1-1-1-1-1-1-1-1-1-1-1-1-1-1-1-1-|
|-1-1-1-1-1-1-1-1-1-1-1-1-1-1-1-1-|-1-1-1-1-1-1-1-1-1-1-1-1-1-1-1-1-|


                                               D.S.S. al Dbl. Coda
                                    F5
  PM----------------------------|
  S S S S S S S S S S S S S S S S   S S S S S S S S S S S S S S S S
|---------------------------------|---------------------------------||
|---------------------------------|---------------------------------||
|---------------------------------|-5-5-5-5-5-5-5-5-5-5-5-5-5-5-5---||
|---------------------------------|-3-3-3-3-3-3-3-3-3-3-3-3-3-3-3-0-||
|---------------------------------|-3-3-3-3-3-3-3-3-3-3-3-3-3-3-3-0-||
|-0-0-0-0-0-0-0-0-0-0-0-0-0-0-0-0-|-3-3-3-3-3-3-3-3-3-3-3-3-3-3-3-0-||


  &&
  Eb5                 F5                Bb/G
  S S S S S S S S +S  S S S S S S S      S S S S S S S S S S S S S S S S
|-----------------------------------||-----------------------------------|
|-----------------------------------||o----------------------------------|
|-3-3-3-3-3-3-3-3-(3)-5-5-5-5-5-5-5-||-----------------------------------|
|-1-1-1-1-1-1-1-1-(1)-3-3-3-3-3-3-3-||---8-8-8-8-8-8-8-8-8-8-8-8-8-8-8-8-|
|-1-1-1-1-1-1-1-1-(1)-3-3-3-3-3-3-3-||o--5-5-5-5-5-5-5-5-5-5-5-5-5-5-5-5-|
|-1-1-1-1-1-1-1-1-(1)-3-3-3-3-3-3-3-||---5-5-5-5-5-5-5-5-5-5-5-5-5-5-5-5-|
|
| Gtr III
|                                        TP
| W                                      W
|-----------------------------------||--15-------------------------------|
|-----------------------------------||o--x-------------------------------|
|-----------------------------------||--12-------------------------------|
|-----------------------------------||-----------------------------------|
|-----------------------------------||o----------------------------------|
|-----------------------------------||-----------------------------------|


  F5/Bb
   S  S  S  S  S  S  S  S  S  S  S  S  S  S  S  S
|-------------------------------------------------|
|-------------------------------------------------|
|-10-10-10-10-10-10-10-10-10-10-10-10-10-10-10-10-|
|-10-10-10-10-10-10-10-10-10-10-10-10-10-10-10-10-|
|--8--8--8--8--8--8--8--8--8--8--8--8--8--8--8--8-|
|--8--8--8--8--8--8--8--8--8--8--8--8--8--8--8--8-|
|
|  TP
|  W
|-15----------------------------------------------|
|--x----------------------------------------------|
|-12----------------------------------------------|
|-------------------------------------------------|
|-------------------------------------------------|
|-------------------------------------------------|


  D5
   S  S  S  S  S  S  S  S  S  S  S  S  S  S  S S
|------------------------------------------------|
|------------------------------------------------|
|-14-14-14-14-14-14-14-14-14-14-14-14-14-14-14---|
|-12-12-12-12-12-12-12-12-12-12-12-12-12-12-12---|
|-12-12-12-12-12-12-12-12-12-12-12-12-12-12-12---|
|-12-12-12-12-12-12-12-12-12-12-12-12-12-12-12-0-|
|
|  TP
|  W
|------------------------------------------------|
|------------------------------------------------|
|-14---------------------------------------------|
|--x---------------------------------------------|
|-12---------------------------------------------|
|------------------------------------------------|


 1.,2.
  F5
   S  S S S S S S S S S S S  S S S S  3x
|-------------------------------------||
|------------------------------------o||
|--5--5-5-5-5-5-5-5-5-5-5-5--5-5-5-5--||
|--3--3-3-3-3-3-3-3-3-3-3-3--3-3-3-3--||
|--3--3-3-3-3-3-3-3-3-3-3-3--3-3-3-3-o||
|--3--3-3-3-3-3-3-3-3-3-3-3--3-3-3-3--||
|
|  TP                        TP
|  H.                        Q        3x
|-------------------------------------||
|------------------------------------o||
|-15------------------------14--------||
|--x-------------------------x--------||
|-13------------------------12-------o||
|-------------------------------------||


  3.
  D5  F5  D5F5  D5F5  D5F5D5F5         G5
   S  S S S S S S S S S S S  S S S S    S S S S S S S S S E S E +E
|------------------------------------|-------------------------------|
|------------------------------------|-------------------------------|
|-----5-5---5-5---5-5---5----5-5-5-5-|--------------------7-5-8-(8)\-|
|--0--3-3-0-3-3-0-3-3-0-3-0--3-3-3-3-|--5-5-5-5-5-5-5-5---x-x-x------|
|--0--3-3-0-3-3-0-3-3-0-3-0--3-3-3-3-|--5-5-5-5-5-5-5-5---5-3-6-(6)\-|
|--0--3-3-0-3-3-0-3-3-0-3-0--3-3-3-3-|--5-5-5-5-5-5-5-5--------------|
|
|  TP                        TP
|  H.                        Q          W
|------------------------------------|-15----------------------------|
|------------------------------------|--x----------------------------|
|-15------------------------14-------|-12----------------------------|
|--x-------------------------x-------|-------------------------------|
|-13------------------------12-------|-------------------------------|
|------------------------------------|-------------------------------|


  G5                             G5
  S S S S S S S S S E S E +E     S S S S S S S S S E S E +E
|------------------------------|------------------------------|
|------------------------------|------------------------------|
|-------------------7-5-8-(8)\-|-------------------7-5-8-(8)\-|
|-5-5-5-5-5-5-5-5---x-x-x------|-5-5-5-5-5-5-5-5---x-x-x------|
|-5-5-5-5-5-5-5-5---5-3-6-(6)\-|-5-5-5-5-5-5-5-5---5-3-6-(6)\-|
|-5-5-5-5-5-5-5-5--------------|-5-5-5-5-5-5-5-5--------------|


  G5
  S S S S S S S S S E S E +E
|------------------------------|
|------------------------------|
|-------------------7-5-8-(8)\-|
|-5-5-5-5-5-5-5-5---x-x-x------|
|-5-5-5-5-5-5-5-5---5-3-6-(6)\-|
|-5-5-5-5-5-5-5-5--------------|


  G5
  S S S S S S S S S  S  S  S Q    +Q    Q  H
|-------------------------------|---------------*|
|-------------------------------|---------------*|
|-------------------10-10-12-8--|-(8)\----------*|
|-5-5-5-5-5-5-5-5----x--x--x-x--|---------------*|
|-5-5-5-5-5-5-5-5----8--8-10-6--|-(6)\----------*|
|-5-5-5-5-5-5-5-5---------------|---------------*|




--------------------------------------------------------------------------------


Duration Legend
---------------
W - whole; H - half; Q - quarter; E - 8th; S - 16th; T - 32nd; X - 64th; a - acciaccatura
+ - note tied to previous; . - note dotted; .. - note double dotted
Uncapitalized letters represent notes that are staccato (1/2 duration)
Irregular groupings are notated above the duration line
Duration letters will always appear directly above the note/fret number it represents the
duration for.  Duration letters with no fret number below them represent rests.  Multi-
bar rests are notated in the form Wxn, where n is the number of bars to rest for.  Low
melody durations appear below the staff

Tablature Legend
----------------
 h   - hammer-on
 p   - pull-off
 b   - bend
 pb  - pre-bend
 r   - bend release (if no number after the r, then release immediately)
 /\  - slide into or out of (from/to "nowhere")
 s   - legato slide
 S   - shift slide
 - natural harmonic
[n]  - artificial harmonic
n(n) - tapped harmonic
 ~   - vibrato
 tr  - trill
 T   - tap
 TP  - trem. picking
 PM  - palm muting
\n/  - tremolo bar dip; n = amount to dip
 \n  - tremolo bar down
 n/  - tremolo bar up
/n\  - tremolo bar inverted dip
 =   - hold bend; also acts as connecting device for hammers/pulls
 <> - volume swell (louder/softer)
 x   - on rhythm slash represents muted slash
 o   - on rhythm slash represents single note slash

Misc Legend
-----------
 |  - bar
||  - double bar
||o - repeat start
o|| - repeat end
*|  - double bar (ending)
 :  - bar (freetime)
 $  - Segno
 &  - Coda
Tempo markers -  = BPM(8/16=s8/s16), where s8 = swing 8ths, s16 = swing 16ths





Comments


Popular Papa Roach tabs & chords
Be Free 1 Bass Tabs
Blood Bass Tabs
Broken Home Bass Tabs
Forever 3 Bass Tabs
Infest Bass Tabs
Life Is A Bullet 5 String Bass Tabs
Caught Dead Tabs
Revenge 2 Tabs
Singular Indestructible Droid Tabs
Kick In The Teeth Ukulele


Song lyrics



↑ Back to top | Tablatures and chords are parodies/interpretations of the original songs. You may use it for private study, scholarship, research or language learning purposes only
© 2014 AZChords.com Contact us | Privacy policy | DMCA | Add/correct tabs | Request tabs | Top 50 tabs