» » »

Papa Roach, Between Angels And Insects Five String Bass tabs (ver.1)

Artists:  A B C D E F G H I J K L M N O P Q R S T U V W X Y Z # 

Between Angels And Insects Five String Bass tabs (ver.1)

Papa Roach Tabs
Rating:
0/5 (0 votes)
Between Angels And Insects Five String lessons Tabs too difficult? Try these video lessons and learn fast
                Intro:
G/------------------|
D/--0-----------0---|
A/-----1--0--3------|
E/------------------|
B/------------------|

After Intro:
G/-----------------------------------------------------------------------------|
D/-----------------------------------------------------------------------------|
A/------------33333333----------33333333----------33333333----------33333333---|
E/--------------------------------------5--5--5--5--------5--5--5--5-----------|
B/--3--3--3--3--------3--3--3--3-----------------------------------------------|

G/-----------------------------------------------------------------------------|
D/-----------------------------------------------------------------------------|
A/------------33333333----------33333333---------------------------------------|
E/-------------------------------------5--5--5--5-66666666--3--3--3--3-11111111|
B/--3--3--3--3--------3--3--3--3-----------------------------------------------|

Verse:
G/-------------------------------------------------------------|
D/-------------------------------------------------------------|
A/-------------------------------------------------------------|
E/----------------------------55555--------66666--6h8-6h8-6h8--|
B/--33333--------66666-----------------------------------------|

Chorus:
G/----------------------------------------------------------------------------------|
D/----------------------------------------------------------------------------------|
A/-------------33333333-----------33333333-----------33333333--------------33333333-|
E/-----------------------------------------5--5--5--5----------5--5--5--5-----------|
B/--3--3--3--3----------3--3--3--3--------------------------------------------------|

G/------------------------------------------------------------------------------|
D/------------------------------------------------------------------------------|
A/-------33333333------------33333333-------------33333333-------------33333333-| E/------------------------------------------------------------------------------|
B/13\3-3---------3-3-3-3-------------8-8-8-8--------------8-8-8-8---------------|

Bass Solo:
G/-------------------------------------------------------------------------------|
D/-----------5-3-2-3----------5-3-2-3-----------5-3-2-3---------3--3--3----------|
A/--0-0-0-3---------0-0h1-3----------0-0-0-3------------3-3-3---3--3-------------|
E/-------------------------------------------------------------------------------|
B/-------------------------------------------------------------------------------|

Outro:
G/--3-2-5-3-2h3------|
D/-------------------|
A/-------------------|
E/-------------------|
B/-------------------|

Im Sorry about the E string in the chorus it wont fix
            
Submit corrections

comments powered by Disqus
↑ Back to top | Papa Roach Bass for Between Angels And Insects Five String. Lyrics for acoustic guitar and electric guitar. Tablatures and chords are parodies/interpretations of the original songs. You may use it for private study, scholarship, research or language learning purposes only