» » »

Papa Roach, Between Angels And Insects 1 Tabs (ver.13)

Artists:  A B C D E F G H I J K L M N O P Q R S T U V W X Y Z # 

Between Angels And Insects 1 Tabs (ver.13)

Papa Roach Tabs
 Rating:
4/5 (13 votes)
Between Angels And Insects 1 lessons Tabs too difficult? Try these video lessons and learn fast
                      Intro

E-------------------------------------------------------------
B-------------------------------------------------------------
G-------------------------------------------------------------
D---------------------------------------------5---------------
A---7h8-7-8/10-8-7h8----7h8-7-8/10-8-7h8---7h8-8-7h8----------
E-10------------------6-----------------5---------------------


E---------------------------------------------
B---------------------------------------------
G---------------------------------------------
D---------------------------------------------
A---7h8-7-8/10-8-7h8--------------------------
E-8-------------------------------------------

  Hard rock part(With dostortion)

E-----------------------------------------------------
B-----------------------------------------------------
G-7777-55555-7777-555555-------55555------55555-------
D-7777-55555-7777-555555--7777-55555-7777-55555-------
A-5555-33333-5555-333333--7777-33333-7777-33333-------
E-------------------------5555-------5555-------------

E---------------------------------------------------------
B---------------------------------------------------------
G-77777-55555-7777-55555-----------------8888-------------
D-77777-55555-7777-55555-7777-8888-33333-8888-------------
A-55555-33333-5555-33333-7777-8888-33333-6666-------------
E------------------------5555-6666-11111------------------


      Verse

E--------------------------------------------------
B--------------------------------------------------
G-77777--------------------------------------------
D-77777-----------------333333---------------------
A-55555-8h10-10-10-8-7--333333-8h10-10-10-8-7------
E-----------------------111111---------------------

E--------------------------------------------------
B--------------------------------------------------
G--------------------------------------------------
D-777777-----------------888888--------------------
A-777777-8h10-10-10-8-7--888888--------------------
E-555555-----------------666666-6h8-6h8-6h8--------



      Chorus

E-----------------------------------------------------
B-----------------------------------------------------
G-7777-55555-7777-555555-------55555------55555-------
D-7777-55555-7777-555555--7777-55555-7777-55555-------
A-5555-33333-5555-333333--7777-33333-7777-33333-------
E-------------------------5555-------5555-------------

      Bridge

E-------------------------------------
B-------------------------------------
G-7-----------------------------------
D-7--8--7--10---Then play the intro---
A-5--8--7--10-------------------------
E----6--5---8-------------------------
            
Submit corrections

comments powered by Disqus
↑ Back to top | Papa Roach Tabs for Between Angels And Insects 1. Lyrics for acoustic guitar and electric guitar. Tablatures and chords are parodies/interpretations of the original songs. You may use it for private study, scholarship, research or language learning purposes only