» » »

Between Angels And Insects 1 Tabs (ver.9)

Artists:  A B C D E F G H I J K L M N O P Q R S T U V W X Y Z # 

Between Angels And Insects 1 Tabs (ver.9)

Papa Roach
Rating:
3/5 (4 votes)

Hard to play? Try these video lessons and learn fast.
                ----------------------------------------------------------------------------------------------

	     BAND: Papa Roach

 ----------------------------------------------------------------------------------------------

	TUNING: drop d (D-A-D-G-B-E)

        () = palm mute

     RIFF A:

    |-----------------------------------------------|
    |-----------------------------------------------|
    |-----------------------------------------------|
    |-----------------------------------------------|
    |---8---7---10---8---7/8---8---7---10---8---7/8-|
    |-0---0---0----0---0-----8---8---8----8---8-----|

    |----------------------------------------------------|
    |----------------------------------------------------|
    |----------------------------------------------------|
    |----------------------------------------------------|
    |---8---7---10---8---7/8----8----7----10----8----8\7-|   
    |-7---7---7----7---7-----10---10---10----10---10-----|

     RIFF B:

    |-----------------------------------------------------------------|
    |-----------------------------------------------------------------|
    |-----------------5-5-5-5-5-5-5-5-----------------5-5-5-5-5-5-5-5-|
    |-0-0-0-0-0-0-0-0-5-5-5-5-5-5-5-5-0-0-0-0-0-0-0-0-5-5-5-5-5-5-5-5-|
    |-0-0-0-0-0-0-0-0-3-3-3-3-3-3-3-3-0-0-0-0-0-0-0-0-3-3-3-3-3-3-3-3-|
    |-0-0-0-0-0-0-0-0-----------------0-0-0-0-0-0-0-0-----------------|

    |-----------------------------------------------------------------|
    |-----------------------------------------------------------------|
    |-----------------5-5-5-5-5-5-5-5-----------------5-5-5-5-5-5-5-5-|
    |-7-7-7-7-7-7-7-7-5-5-5-5-5-5-5-5-7-7-7-7-7-7-7-7-5-5-5-5-5-5-5-5-|
    |-7-7-7-7-7-7-7-7-3-3-3-3-3-3-3-3-7-7-7-7-7-7-7-7-3-3-3-3-3-3-3-3-|
    |-7-7-7-7-7-7-7-7-----------------7-7-7-7-7-7-7-7-----------------|

     RIFF C:

    |-----------------------------------------------------------------|
    |-----------------------------------------------------------------|
    |-----------------5-5-5-5-5-5-5-5-----------------5-5-5-5-5-5-5-5-|
    |-0-0-0-0-0-0-0-0-5-5-5-5-5-5-5-5-0-0-0-0-0-0-0-0-5-5-5-5-5-5-5-5-|
    |-0-0-0-0-0-0-0-0-3-3-3-3-3-3-3-3-0-0-0-0-0-0-0-0-3-3-3-3-3-3-3-3-|
    |-0-0-0-0-0-0-0-0-----------------0-0-0-0-0-0-0-0-----------------|

    |-----------------------------------------------------------------|
    |-----------------------------------------------------------------|
    |-----------------------------------------------------------------|
    |-7-7-7-7-7-7-7-7-8-8-8-8-8-8-8-8-3-3-3-3-3-3-3-3-1-1-1-1-1-1-1-1-|
    |-7-7-7-7-7-7-7-7-8-8-8-8-8-8-8-8-3-3-3-3-3-3-3-3-1-1-1-1-1-1-1-1-|
    |-7-7-7-7-7-7-7-7-8-8-8-8-8-8-8-8-3-3-3-3-3-3-3-3-1-1-1-1-1-1-1-1-|

     RIFF D:

    |-----------------------------------------------------------------|
    |-----------------------------------------------------------------|
    |-----------------------------------------------------------------|
    |-(0-0-0-0-0)---------------------(8-8-8-8-8)---------------------|
    |-(0-0-0-0-0)-7/8-8/10-10-10-10\8-(8-8-8-8-8)-7/8-8/10-10-10-10\8-|
    |-(0-0-0-0-0)---------------------(8-8-8-8-8)---------------------|

    |-----------------------------------------------------------------------|
    |-----------------------------------------------------------------------|
    |-----------------------------------------------------------------------| 
    |-(7-7-7-7-7)---------------------(10-10-10-10-10)----------------------|
    |-(7-7-7-7-7)-7/8-8/10-10-10-10\8-(10-10-10-10-10)----------------------|
    |-(7-7-7-7-7)---------------------(10-10-10-10-10)-0-8/10-0-8/10-0-8/10-|

     RIFF E:

    |-----------------------------------------------------------------|
    |-----------------------------------------------------------------|
    |-----------------5-5-5-5-5-5-5-5-----------------5-5-5-5-5-5-5-5-|
    |-0-0-0-0-0-0-0-0-5-5-5-5-5-5-5-5-0-0-0-0-0-0-0-0-5-5-5-5-5-5-5-5-|
    |-0-0-0-0-0-0-0-0-3-3-3-3-3-3-3-3-0-0-0-0-0-0-0-0-3-3-3-3-3-3-3-3-|
    |-0-0-0-0-0-0-0-0-----------------0-0-0-0-0-0-0-0-----------------|

    |--------------------------------------------------------------------|
    |--------------------------------------------------------------------|
    |-----------------5-5-5-5-5-5-5-5-----------------5-5-5-5-5-5-5-5-7\-|
    |-7-7-7-7-7-7-7-7-5-5-5-5-5-5-5-5-7-7-7-7-7-7-7-7-5-5-5-5-5-5-5-5-7\-|
    |-7-7-7-7-7-7-7-7-3-3-3-3-3-3-3-3-7-7-7-7-7-7-7-7-3-3-3-3-3-3-3-3-5\-|
    |-7-7-7-7-7-7-7-7-----------------7-7-7-7-7-7-7-7--------------------|

    RIFF F:

    |-------------------------|
    |-------------------------|
    |-10-----10-----10-----10-|
    |--0------8------7-----10-|
    |--0------8------7-----10-|
    |--0------8------7-----10-|

     RIFF G:

    |-----------------------------------------------|
    |-----------------------------------------------|
    |-----------------------------------------------|
    |-----------------------------------------------|
    |---8---7---10---8---7/8---8---7---10---8---7/8-|
    |-0---0---0----0---0-----8---8---8----8---8-----|

    |------------------------------------------------------|
    |------------------------------------------------------|
    |------------------------------------------------------|
    |----------------------------------------------------0-|
    |---8---7---10---8---7/8----8----7----10----8----8\7-0-|
    |-7---7---7----7---7-----10---10---10----10---10-----0-|

     RIFF H:

    |-----------------------------------------------------------------------------|
    |-----------------------------------------------------------------------------|
    |-7-7-7-7-7-7-7-7-7-7-10-10-10-10-10-10-7-7-7-7-7-7-7-7-7-7-10-10-10-10-10-10-|
    |-7-7-7-7-7-7-7-7-7-7-10-10-10-10-10-10-7-7-7-7-7-7-7-7-7-7-10-10-10-10-10-10-|
    |-5-5-5-5-5-5-5-5-5-5--8--8--8--8--8--8-5-5-5-5-5-5-5-5-5-5--8--8--8--8--8--8-|
    |-----------------------------------------------------------------------------|

    |-------------------------------------------------------------------------------|
    |-------------------------------------------------------------------------------|
    |-9-9-9-9-9-9-9-9-9-9-10-10-10-10-10-10-9-9-9-9-9-9-9-9-9-9-10-10-10-10-10-10-7-|
    |-9-9-9-9-9-9-9-9-9-9-10-10-10-10-10-10-9-9-9-9-9-9-9-9-9-9-10-10-10-10-10-10-0-|
    |-7-7-7-7-7-7-7-7-7-7--8--8--8--8--8--8-7-7-7-7-7-7-7-7-7-7--8--8--8--8--8--8-0-|
    |-----------------------------------------------------------------------------0-|
            
Hard to play? Try these video lessons and learn fast. | Correct




comments powered by Disqus
↑ Back to top | Tablatures and chords are parodies/interpretations of the original songs. You may use it for private study, scholarship, research or language learning purposes only