» » »

Papa Roach, Between Angels And Insects 1 Tabs (ver.8)

Artists:  A B C D E F G H I J K L M N O P Q R S T U V W X Y Z # 

Between Angels And Insects 1 Tabs (ver.8)

Papa Roach Tabs
Rating:
3/5 (14 votes)
Between Angels And Insects 1 lessons Tabs too difficult? Try these video lessons and learn fast
                Intro

E---------------------------------------------------------
B---------------------------------------------------------
G---------------------------------------------------------
D---------------------------------------------------------
A----8---7---10---8---7h8-----8---7---10---8---7h8--------
D--0---0---0----0---0-------8---8---8----8---8------------

E---------------------------------------------------------
B---------------------------------------------------------
G---------------------------------------------------------
D---------------------------------------------------------
A----8---7---10---8---7h8------8----7----10----8----8p7---
D--7---7---7----7---7-------10---10---10----10---10-------

chourus 1

E---------------------------------------------------------
B---------------------------------------------------------
G---------------------------------------------------------
D--0000--10-10-10-10-10-10--0000--10-10-10-10-10-10-------
A--0000--10-10-10-10-10-10--0000--10-10-10-10-10-10-------
D--0000--10-10-10-10-10-10--0000--10-10-10-10-10-10-------

E---------------------------------------------------------
B---------------------------------------------------------
G---------------------------------------------------------
D--7777--10-10-10-10-10-10--7777--10-10-10-10-10-10-------
A--7777--10-10-10-10-10-10--7777--10-10-10-10-10-10-------
D--7777--10-10-10-10-10-10--7777--10-10-10-10-10-10-------

E---------------------------------------------------------
B---------------------------------------------------------
G---------------------------------------------------------
D--0000--10-10-10-10-10-10--0000--10-10-10-10-10-10-------
A--0000--10-10-10-10-10-10--0000--10-10-10-10-10-10-------
D--0000--10-10-10-10-10-10--0000--10-10-10-10-10-10-------

E---------------------------------------------------------
B---------------------------------------------------------
G---------------------------------------------------------
D--7777--888888---3333--111111----------------------------
A--7777--888888---3333--111111----------------------------
D--7777--888888---3333--111111----------------------------

verse 1x3/verse 2x2

E---------------------------------------------------------
B---------------------------------------------------------
G--------9-10-12-12-12-10---------9-10-12-12-12-10--------
D--00000-x-x--x--x--x--x----33333-x-x--x--x--x--x---------
A--00000-7-8--10-10-10-8----33333-7-8--10-10-10-8---------
D--00000--------------------33333-------------------------

E---------------------------------------------------------
B---------------------------------------------------------
G--------9-10-12-12-12-10---------------------------------
D--77777-x-x--x--x--x--x---88888--------------------------
A--77777-7-8--10-10-10-8---88888--------------------------
D--77777-------------------88888--0-8-10-10-8-10-10-8-10--
-
Chourus 2

E---------------------------------------------------------
B---------------------------------------------------------
G---------------------------------------------------------
D--0000--10-10-10-10-10-10---0000--10-10-10-10-10-10------
A--0000--10-10-10-10-10-10---0000--10-10-10-10-10-10------
D--0000--10-10-10-10-10-10---0000--10-10-10-10-10-10------

E---------------------------------------------------------
B---------------------------------------------------------
G---------------------------------------------------------
D--7777--10-10-10-10-10-10--7777--10-10-10-10-10-10-------
A--7777--10-10-10-10-10-10--7777--10-10-10-10-10-10-------
D--7777--10-10-10-10-10-10--7777--10-10-10-10-10-10-------

E---------------------------------------------------------
B---------------------------------------------------------
G---------------------------------------------------------
D------0----10-10-10-10-10-10--0000--10-10-10-10-10-10----
A------0----10-10-10-10-10-10--0000--10-10-10-10-10-10----
D-12/--0----10-10-10-10-10-10--0000--10-10-10-10-10-10----

E---------------------------------------------------------
B---------------------------------------------------------
G---------------------------------------------------------
D--7777--10-10-10-10-10-10--7777--10-10-10-10-10-10-------
A--7777--10-10-10-10-10-10--7777--10-10-10-10-10-10-------
D--7777--10-10-10-10-10-10--7777--10-10-10-10-10-10-------

Back to verse x2

Back to chourus 2

Bridge 

E---------------------------------------------------------
B---------------------------------------------------------
G---------------------------------------------------------
D--0-----3-----7-----8------------------------------------
A--0-----3-----7-----8------------------------------------
D--0-----3-----7-----8------------------------------------

Back to intro x4

Back to chourus

Outro

E-000000-11--33333333--77777777--10-10-10-10-10-10-10-10--0
B-000000-11--33333333--77777777--10-10-10-10-10-10-10-10--0
G-000000-11--33333333--77777777--10-10-10-10-10-10-10-10--0
D----------------------------------------------------------
A----------------------------------------------------------
D----------------------------------------------------------
            
Submit corrections

comments powered by Disqus
↑ Back to top | Papa Roach Tabs for Between Angels And Insects 1. Lyrics for acoustic guitar and electric guitar. Tablatures and chords are parodies/interpretations of the original songs. You may use it for private study, scholarship, research or language learning purposes only