» » »

Papa Roach, Between Angels And Insects 1 Tabs (ver.1)

Artists:  A B C D E F G H I J K L M N O P Q R S T U V W X Y Z # 

Between Angels And Insects 1 Tabs (ver.1)

Papa Roach Tabs
 Rating:
1.7/5 (82 votes)
Between Angels And Insects 1 lessons Tabs too difficult? Try these video lessons and learn fast

WWW.AZCHORDS.COM | Papa Roach Tabs - Between Angels And Insects 1 Tabs (ver. 1)


PROPS GO TO: theoffspring182

Intro
e-------------------------------------------------------------------------------
B-------------------------------------------------------------------------------
G-------------0--------------------------------0--------------------------------
D----3---2--------3-----2-3--------3-----2----------3------2-3--------3-----2---
A-------------------------------1-----1-----1-----1-----1----------0-----0-----0
D--0---0---0---------0----------------------------------------------------------

 -------------------------------------------------------------------------------
 -------------------------------------------------------------------------------
 -0---------------------------------0-------------------------------------------
 ------3------2-3--------3----2----------3------3-2-----------------------------
 ----0-----0-----------3----3----3-----3-----3----------------------------------
 -------------------------------------------------------0--let this ring--------

Main riff/Chorus
 -------------------------------------------------------------------------------
 -------------------------------------------------------------------------------
 -------------------------------------------------------------------------------
 -0---0---0---0---0--10--10--10---10--10--10---0---0---0---0---0--10--10--10----
 -0---0---0---0---0--10--10--10---10--10--10---0---0---0---0---0--10--10--10----
 -0---0---0---0---0--10--10--10---10--10--10---0---0---0---0---0--10--10--10----
 
 -------------------------------------------------------------------------------
 -------------------------------------------------------------------------------
 -------------------------------------------------------------------------------
 -10--10--10---7---7---7---7--7--7--10--10--10--10--10--10--10--7---7---7----7--
 -10--10--10---7---7---7---7--7--7--10--10--10--10--10--10--10--7---7---7----7--
 -10--10--10---7---7---7---7--7--7--10--10--10--10--10--10--10--7---7---7----7--
 
 -------------------------------------------------------------------------------
 -------------------------------------------------------------------------------
 -------------------------------------------------------------------------------
 -7--7--10--10--10--10--10--10--10---7---7---7---7--7--7--8--8--8--8--8--8--0---
 -7--7--10--10--10--10--10--10--10---7---7---7---7--7--7--8--8--8--8--8--8--0---
 -7--7--10--10--10--10--10--10--10---7---7---7---7--7--7--8--8--8--8--8--8--0---

 -------------------------------------------------------------------------------
 -------------------------------------------------------------------------------
 -------------------------------------------------------------------------------
 -3---3---3---3--3--1--1--1--1--1--1--1--1--------------------------------------
 -3---3---3---3--3--1--1--1--1--1--1--1--1--------------------------------------
 -3---3---3---3--3--1--1--1--1--1--1--1--1--------------------------------------

Verse
 -------------------------------------------------------------------------------
 -------------------------------------------------------------------------------
 -------------------------------------------------------------------------------
 ----------------------3--5--5--5-x-3---0--3--3--3--3--3--3----3--5--5--5-x-3--0
 ----------------5-------------------------3--3--3--3--3--3---------------------
 -0--0--0--0--0----------------------------3--3--3--3--3--3--0------------------
 palm mute_____                            palm mute_______
 -------------------------------------------------------------------------------
 -------------------------------------------------------------------------------
 -------------------------------------------------------------------------------
 -7--7--7--7--7--7---7-3--5--5--5-x-3---0--8--8--8--8--8--8---------------------
 -7--7--7--7--7--7---7---------------------8--8--8--8--8--8---------------------
 -7--7--7--7--7--7---7---------------------8--8--8--8--8--8--0--8-10-10-8-10-10-
 palm mute____________                     palm mute_______
 -------------------------------------------------------------------------------
 -------------------------------------------------------------------------------
 -------------------------------------------------------------------------------
 -------8--8--8--8--8--8-----------------10-------------------------------------
 -------8--8--8--8--8--8----8-10-10-10-x-10-------------------------------------
 -8-10--8--8--8--8--8--8--0--------------10-------------------------------------
        palm mute_______

Bridge
 -------------------------------------------------------------------------------
 -------------------------------------------------------------------------------
 -2-------------------------3-------------------------2-------------------------
 -3-------------------------3-------------------------3-------------------------
 -0-------------------------1-------------------------0-------------------------
 -0-----------------------------------------------------------------------------

 -------------------------------------------------------------------------------
 -------------------------------------------------------------------------------
 -5-----------------------------------------------------------------------------
 -3-----------------------------------------------------------------------------
 -3-----------------------------------------------------------------------------
 -------------------------------------------------------------------------------
            
Submit corrections

↑ Back to top | Papa Roach Tabs for Between Angels And Insects 1. Lyrics for acoustic guitar and electric guitar. Tablatures and chords are parodies/interpretations of the original songs. You may use it for private study, scholarship, research or language learning purposes only