» » »

Between Angels And Insects 1 Bass tabs (ver.4)

Artists:  A B C D E F G H I J K L M N O P Q R S T U V W X Y Z # 

Between Angels And Insects 1 Bass tabs (ver.4)

Papa Roach
Rating:
4/5 (14 votes)

Hard to play? Try these video lessons and learn fast.
                

I really liked this song when I found it tabed by Keith M.D. but
it was very incomplete and now that I have experience playing the
bass I decided to tab it. Sorry for my english because I'm from Spain.


   INTRO (Bass strats at 0:10) (Play it slow)
G|--------||-----------------------------------------------------------------||
D|--REST--||-----------------------------------------------------------------||
A|--------||-------------1~~~~~~~~--0~~~~~~~~--3~~~~~~~~---------------------||
D|--------||--0~~~~~~~~-----------------------------------0~~~~~~~~~~~~~~~~--||


   RIFF 1 (These are tens) (0:26)
G|------------------------------------||------------------------------------||
D|*----------------------------------*||*----------------------------------*||
A|*----------------------------------*||*----------------------------------*||
D|--0--0--0--0--0h10--10-10-10-10-10--||--7--7--7--7--7h10--10-10-10-10-10--||


   RIFF 2 (0:36)
G|-----------------------------------||
D|*---------------------------------*||
A|*---------------------------------*||
D|--0--0--0--0--0h10-10-10-10-10-10--||

G|---------------------------------------------------------||
D|---------------------------------------------------------||
A|---------------------------------------------------------||
D|--7--7--7--7--7h8--8-8-8-8-8--3--3--3--3--3--1-1-1-1-1-1-||


   RIFF 3 (x3) (You have to rest during the little guitar parts) (0:46)
G|---------------||--------||---------------||--------||---------------||
D|---------------||--REST--||---------------||--REST--||---------------||
A|---------------||--------||---------------||--------||--0-0-0-0-0-0--||
D|--0-0-0-0-0-0--||--------||--3-3-3-3-3-3--||--------||---------------||

G|--------||------------------------------||
D|--REST--||------------------------------||
A|--------||--1-1-1-1-1-1--1h3--1h3--1h3--||
D|--------||------------------------------||


   RIFF 1 (1:17)
G|------------------------------------||------------------------------------||
D|*----------------------------------*||*----------------------------------*||
A|*----------------------------------*||*----------------------------------*||
D|--0--0--0--0--0h10--10-10-10-10-10--||--7--7--7--7--7h10--10-10-10-10-10--||


   RIFF 4 (1:28)
G|---------------------------------||------------------------------------||
D|---------------------------------||------------------------------------||
A|---------------------------------||------------------------------------||
D|--0/10-h0--0h10--10-10-10-10-10--||--0--0--0--0--0h10--10-10-10-10-10--||

G|------------------------------------||
D|*----------------------------------*||
A|*----------------------------------*||
D|--7--7--7--7--7h10--10-10-10-10-10--||
            
Hard to play? Try these video lessons and learn fast. | Correct




comments powered by Disqus
↑ Back to top | Tablatures and chords are parodies/interpretations of the original songs. You may use it for private study, scholarship, research or language learning purposes only