» » »

Papa Roach, Alive (N' Out Of Control) Bass tabs (ver.2)

Artists:  A B C D E F G H I J K L M N O P Q R S T U V W X Y Z # 

Alive (N' Out Of Control) Bass tabs (ver.2)

Papa Roach Tabs
 Rating:
4/5 (4 votes)
Alive (N' Out Of Control) lessons Tabs too difficult? Try these video lessons and learn fast
                ----------------------------------------------------------------------------
		     Alive N Out of Control - Papa Roach
----------------------------------------------------------------------------


Tuning: Dropped C (CGCF)

Intro:
F|--------------------------------------------------------|
C|--------------------------------------------------------|
G|5555555555555888888888888-------------------------------|
C|-------------------------8888888888888855555555555555---|

Verse:
G|---------------------------------------------------|
D|---------------------------------------------------|
A|---------------------------------------------------|
E|00----00-00-00---00----00-00-00----00----00-00-00--|

On Third Verse it's this
G|---------------------------------------------------|
D|---------------------------------------------------|
A|----------------/5---------------------------------|
E|00----00-00-00----0----00-00-00----00----00-00-00--|

No Bass on Pre-chorus

Chorus:
G|--------------------------------------------------------|
D|--------------------------------------------------------|
A|5555---5555----8888---8888------------------------------|
E|-----------------------------8888---8888---5555---5555--|

G|--------------------------------------------------------|
D|--------------------------------------------------------|
A|5555---5555----8888---8888------------------------------|
E|-----------------------------8888---8888---55555555555--|

Break:
G|---------------------------------------------------|
D|---------------------------------------------------|
A|5-------8------------------------------------------|
E|-----------------8--------5------------------------|

Play Intro After the Above Riff a couple of times and then play the chorus until the end

End the song on C or the 5 fret of the second string

| /  slide up
| \  slide down
| h  hammer-on
| p  pull-off
| ~  vibrato
| +  harmonic
| x  Mute note
============================================================================
            
Submit corrections

comments powered by Disqus
↑ Back to top | Papa Roach Bass for Alive (N' Out Of Control). Lyrics for acoustic guitar and electric guitar. Tablatures and chords are parodies/interpretations of the original songs. You may use it for private study, scholarship, research or language learning purposes only