>
 >
True 1

True 1 Guitar Tabs

Paolo Santos - True 1 chords, tabs, tablatures, lyrics

Guitar lessons | Add/correct | Request | Top 50 tabs Artists:  A B C D E F G H I J K L M N O P Q R S T U V W X Y Z 0-9

True 1 Guitar Tabs – Paolo Santos

CD, Sheet music, Poster

Do you like True 1? Share with your friends now
TabsTabs v2
100% Complete
-=[Angelo Dacanay]=-
tnx kay Raynaldo.......pnlitan ko ng onti ung adlib. :D





INTRO: B--Ebm-B-Ebm-(3X)
       E--A-

Guitar 1: Apply accurate guitar muting and tapping technique

        B           Ebm           B            Ebm 
e|-------------------------------------------------------|
B|------4x-----4-----7x-----7-----7x-----9-----7x-----7--|
G|------4x-----4-----8x-----8-----8x-----8-----8x-----8--| (3X)
D|-------------------------------------------------------|
A|------2x--2--------6x--6---------------------6x--6-----|
E|--------------------------------7x--7------------------|

    E                A
e|--0-----0----------7-----7-------7-------------|
B|------0----------------5-----5-----------------|
G|----1----------------6---------6---------------|
D|--2----------------7-------7-------------------|
A|-----------------------------------------------|
E|-----------------------------------------------|

Guitar 2: Let Ring throughout (Hold Pattern) 

    B           Ebm           B           Ebm
e|---------------6------------------------------------------|
B|--7------------7------------7------------7----------------|
G|--8------------8------------8------------8----------------| (3x)
D|--9-------------------------9------------8----------------|
A|----------------------------------------------------------|
E|----------------------------------------------------------|
     E           A
e|---0-----------7----------|
B|---0-----------5----------|
G|---1-----------6----------|
D|---2-----------7----------|
A|--------------------------|
E|--------------------------|

Stanza 1: (Guitar 1 only)

          B-Ebm-E-D
          B-Ebm-E-G#mhold-Ehold-B-
          E-B-E-B-E-B
          E, Ebm, A  

e|-------------------------------------------------------------|
B|--4-----4---4----7-----7---7----7-----7---7----7-----7---7---|
G|------4-------4------8-------8------9-------9------7-------7-|
D|----4-----4--------8-----8--------9-----9--------7-----7-----|
A|--2--------------6--------------7--------------5-------------|
E|-------------------------------------------------------------|

e|-----------------------------------------------------|
B|--4-----4---4----7-----7---7----7-----7---7----------|
G|------4-------4------8-------8------9-------9--------|
D|----4-----4--------8-----8--------9-----9------------|
A|--2--------------6--------------7--------------------|
E|-----------------------------------------------------|

e|---4------0--------------------------------------|
B|---4------0-------------4-------4----------------|
G|---4------1-----------4---4---4---4--------------|
D|---6------2---------4-------4--------------------|
A|---6------2-------2------------------------------|
E|---4------0--------------------------------------|

e|---0-----0---------2-----------0-----0---------2---------------|
B|-------0-----------2---2-----------0-----------2---2-----------|
G|-----1-----------4-------4-------1-----------4-------4---------|
D|---2-----------4-----4---------2-----------4-----4-------------|
A|-------------2---------------------------2---------------------|
E|---------------------------------------------------------------|

e|---0-----0---------2-----------------6-----7----------------|
B|-------0-----------2---2--------9----7-----5----------------|
G|-----1-----------4-------4------9----8-----6----------------|
D|---2-----------4-----4----------9----8-----7----------------|
A|-------------2------------------7----6-----7----------------|
E|-------------------------------------------5----------------|


CHORUS 1: B--Ebm-B-Ebm-(2X)
          E--A


Guitar 1: Apply accurate guitar muting and tapping technique

        B           Ebm           B            Ebm 
e|-------------------------------------------------------|
B|------4x-----4-----7x-----7-----7x-----9-----7x-----7--|
G|------4x-----4-----8x-----8-----8x-----8-----8x-----8--| (2X)
D|-------------------------------------------------------|
A|------2x--2--------6x--6---------------------6x--6-----|
E|--------------------------------7x--7------------------|

    E                A
e|--0-----0----------7-----7-------7-------------|
B|------0----------------5-----5-----------------|
G|----1----------------6---------6---------------|
D|--2----------------7-------7-------------------|
A|-----------------------------------------------|
E|-----------------------------------------------|

Guitar 2: Let Ring throughout (Hold Pattern)

    B           Ebm           B           Ebm
e|---------------6------------------------------------------|
B|--7------------7------------7------------7----------------|
G|--8------------8------------8------------8----------------| (2x)
D|--9-------------------------9------------8----------------|
A|----------------------------------------------------------|
E|----------------------------------------------------------|
     E           A
e|---0-----------7----------|
B|---0-----------5----------|
G|---1-----------6----------|
D|---2-----------7----------|
A|--------------------------|
E|--------------------------|

Stanza 2: B-Ebm-E-D
          B-Ebm-E-G#mhold-Ehold-B-
          E-B-E-B-E-B
          E, Ebm, A  

Guitar 1: (Do stanza 1 pattern)

Guitar 2: (same chords in stanza 1 but differ in plucking pattern)

e|------------------------------------------------10---------|
B|-----------4-----------7------------7--------10--------10--|
G|------4------------8------------9------------------11------|
D|----4---4--------8---8--------9---9-------12---------------|
A|--2------------6------------7------------------------------|
E|-----------------------------------------------------------|

e|-----------------------------------------4-----7-----7-----|
B|-----------4-----------7------------7----4-----7-----7-----|
G|------4------------8------------9--------4-----9-----8-----|
D|----4---4--------8---8--------9---9------6-----9-----9-----|
A|--2------------6------------7------------------7-----------|
E|-----------------------------------------------------------|

(Apply mild strumming)                        (Apply hold pattern) 

e|--0--------------0---------------0---------------------6--7--|
B|--0------4-------0-------4-------0-------4----------9--7--5--|
G|--1------4-------1-------4-------1-------4----------9--8--6--|
D|--2------4-------2-------4-------2-------4----------9--8--7--|
A|--2------2-------2-------2-------2-------2----------7--6--7--|
E|--0--------------0---------------0------------------------5--|


CHORUS 2: B--Ebm-B-Ebm-(2X)
          E--A
          E----

Guitar 1: Apply accurate guitar muting and tapping technique
        B           Ebm           B            Ebm 
e|-------------------------------------------------------|
B|------4x-----4-----7x-----7-----7x-----9-----7x-----7--|
G|------4x-----4-----8x-----8-----8x-----8-----8x-----8--| (2X)
D|-------------------------------------------------------|
A|------2x--2--------6x--6---------------------6x--6-----|
E|--------------------------------7x--7------------------|

    E                A                  E
e|--0-----0----------7-----7-------7----0---0----0-0-|
B|------0----------------5-----5--------0---0----0-0-|
G|----1----------------6---------6------1---1----1-2-|
D|--2----------------7-------7----------2---2----2-2-|
A|--------------------------------------2---2----2-2-|
E|--------------------------------------0---0----0-0-|

Guitar 2: Let Ring throughout (Hold Pattern)

    B           Ebm           B           Ebm
e|---------------6------------------------------------------|
B|--7------------7------------7------------7----------------|
G|--8------------8------------8------------8----------------| (2x)
D|--9-------------------------9------------8----------------|
A|----------------------------------------------------------|
E|----------------------------------------------------------|
    E          A          E  
e|--242------5h7-----6----------------------|
B|--5-55-5-4--5-----5----9--9---9-9----------|
G|--------4-4-------------9--9---9-9----------|
D|------------------------9--9---9-9----------|
A|------------------------7--7---7-7----------|
E|--------------------------------------------|

ADLIB: G-C- (4X)
       B-- 

Guitar 1:

   G               C               G               C 
e|-----------------------------------------------------------------|
B|-------3-----3---------3-----3---------3-----3---------3-----3---|
G|-----0-----0---0-----0-----0---0-----0-----0---0-----0-----0---0-|
D|---0-----0---------2-----2---------0-----0---------2-----2-------|
A|-----------------3-------------------------------3---------------|
E|-3-------------------------------3-------------------------------|
   G               C               G               C 
e|-----------------------------------------------------------------|
B|-------3-----3---------3-----3---------3-----3---------3-----3---|
G|-----0-----0---0-----0-----0---0-----0-----0---0-----0-----0---0-|
D|---0-----0---------2-----2---------0-----0---------2-----2-------|
A|-----------------3-------------------------------3---------------|
E|-3-------------------------------3-------------------------------|
    B               B 
e|------------------------------------------|
B|--------2-----2---------2-----2-----------|
G|------4-----4---4-----4-----4---4---------|
D|----4-----4---------4-----4---------------|
A|--2---------------2-----------------------|
E|------------------------------------------|

Guitar 2:

E|--8s10-----7-7s8--7-8-7----7--------12p10--8s7---5p3-----5--7-------|
B|------------------------10---8--------------------------------8-----|
G|-------------------------------7--------------------------------7---|
D|--------------------------------------------------------------------|
A|--------------------------------------------------------------------|
E|--------------------------------------------------------------------|

E|-------------------------8-7----7-----------------------------------|
B|---5h7s8--7-5x---------------10---8-7-5---7--5----5-----------------|
G|--------------7---------------------------------7----7--5--7--------|
D|----------------7s9-------------------------------------------------|
A|--------------------------------------------------------------------|
E|--------------------------------------------------------------------|

e|-----------------------------------------------------------|
B|-----------------------------------------4s5-4----4s9-7----|
G|--5-4-4--------------------------4s6-4---------------------|
D|--------7---5-7-7-5-4--4s5--4-----------------------------|
A|-----------------------------------------------------------|
E|-----------------------------------------------------------|

e|--7s9-7---9-7--11-7------|
B|-------------------------|
G|-------------------------|
D|-------------------------|
A|-------------------------|
E|-------------------------|

Bridge:   E-B-E-B-E-B
          E, Ebm, A  

Guitar 1:

e|--0-----0--------2----------0-x-------------0-----0-------2-------|
B|------0----------2----2-----0-x-----------------0---------2---2---|
G|----1----------4--------4---1-x---4--2--4-----1---------4-------4-|
D|--2----------4-----4--------2-x---4--2--4---2---------4-----4-----|
A|-----------2----------------2-x---2--0--2-----------2-------------|
E|----------------------------0-x-----------------------------------|

e|------------7--------|
B|--9----7----5--------|
G|--9----8----6--------|
D|--9----8----7--------|
A|--7----6----7--------|
E|------------5--------|

Guitar 2: 

(mild strumming)

     E               B  
e|---0---|      e|---2---|       
B|---0---|      B|---2---|       
G|---1---|      G|---4---|       
D|---2---|      D|---4---|       
A|---2---|      A|---2---|       
E|---0---|      E|-------|       

(hold pattern)
     E              Ebm               A 
e|-------|      e|---6---|       e|---7---|       
B|---9---|      B|---7---|       B|---5---|       
G|---9---|      G|---8---|       G|---6---|       
D|---9---|      D|---8---|       D|---7---|       
A|---7---|      A|---6---|       A|---7---|       
E|-------|      E|-------|       E|---5---|       

Chorus 3: B-Ebm--(4x)
          E-F#-B-(2x)  
          E-A--

Guitar 1: (Do mild strumming on every chords)

(mild strumming)

     E               B  
e|---0---|      e|---2---|       
B|---0---|      B|---2---|       
G|---1---|      G|---4---|       
D|---2---|      D|---4---|       
A|---2---|      A|---2---|       
E|---0---|      E|-------|       

(hold pattern)
    F#m             Ebm               A
e|---2---|      e|---6---|       e|---7---|       
B|---2---|      B|---7---|       B|---5---|       
G|---3---|      G|---8---|       G|---6---|       
D|---4---|      D|---8---|       D|---7---|       
A|---4---|      A|---6---|       A|---7---|       
E|---2---|      E|-------|       E|---5---|       

Guitar 2:

        B           Ebm           B            Ebm 
e|-------------------------------------------------------|
B|------4x-----4-----7x-----7-----7x-----9-----7x-----7--|
G|------4x-----4-----8x-----8-----8x-----8-----8x-----8--| 
D|-------------------------------------------------------|
A|------2x--2--------6x--6---------------------6x--6-----|
E|--------------------------------7x--7------------------|

        B           Ebm           B            Ebm 
e|-------------------------------------------------------|
B|------4x-----4-----7x-----7-----7x-----9-----7x-----7--|
G|------4x-----4-----8x-----8-----8x-----8-----8x-----8--| 
D|-------------------------------------------------------|
A|------2x--2--------6x--6---------------------6x--6-----|
E|--------------------------------7x--7------------------|
     E
e|---4---2-4-2--------------------4---2-4-2------------------|
B|---5---5-5-5--5-4-2---2/5--4----5---5-5-5--5-4-2---2/5--4--|
G|--------------4-4-3---3/6--4---------------4-4-3---3/6--4--|
D|-----------------------------------------------------------|
A|-----------------------------------------------------------|
E|-----------------------------------------------------------|

e|---4---2-4-2----------5h7---------7------------|
B|---5---5-5-5--5-4-2---5-------5----------------|
G|--------------4-4-3---------6------------------|
D|----------------------7---7--------------------|
A|-----------------------------------------------|
E|-----------------------------------------------|

Outro: 
          B-Ebm--(8x)
          E-F#-B-(2x)  
          E-A--

Guitar 1: (do mild strumming) (use chords in last chorus)

Guitar 2: Pakinggan nyo mabuti dito yung strumming 
          Medyo matining pero mahina lang. madali
          Lang naman ang pattern ng strumming. 

e|---7-----------7------------7-------------9---------|
B|---7-----------7------------7-------------7---------|
G|---8-----------8------------8-------------8---------|
D|----------------------------------------------------| (8x)
A|----------------------------------------------------|
E|----------------------------------------------------|
     E
e|---2h4---2-4-2------------------2h4-2-4-2------------------|
B|---5---5-5-5--5-4-2---2/5--4----5---5-5-5--5-4-2---2/5--4--|
G|--------------4-4-3---3/6--4---------------4-4-3---3/6--4--|
D|-----------------------------------------------------------|
A|-----------------------------------------------------------|
E|-----------------------------------------------------------|

e|---2h4-2-4-2----------5h7---------7------------|
B|---5---5-5-5--5-4-2---5-------5----------------|
G|--------------4-4-3---------6------------------|
D|----------------------7---7--------------------|
A|-----------------------------------------------|
E|-----------------------------------------------|

e|--2h4--2-4-2---------5/7----4------4-----4-----4---4--|
B|--5----5-5-5--5-4-2-------5------5-----5-----5-----5--|
G|--------------4-4-3------------6-----6-----6-------6--|
D|------------------------------------------------------|
A|------------------------------------------------------|
E|------------------------------------------------------|



I Dedicate This tab to Jehan n 2 ol of mah friendz!!!!! Luv U All.





Comments


Popular Paolo Santos tabs & chords
Akoy Sayo Ikay Akin Chords
Daisy Jane Chords
Moonlight Over Paris 3 Chords
Tracks Of My Tear Chords
Whats Going On Chords
I'll Be 1 Tabs
Moonlight Over Paris Tabs
As We Dance Ukulele
Can We Still Be Friends Ukulele
Drops Of Jupiter Ukulele


Song lyrics



↑ Back to top | Tablatures and chords are parodies/interpretations of the original songs. You may use it for private study, scholarship, research or language learning purposes only
© 2014 AZChords.com Contact us | Privacy policy | DMCA | Add/correct tabs | Request tabs | Top 50 tabs