>
 >
Moonlight Over Paris 2

Moonlight Over Paris 2 Guitar Tabs

Paolo Santos - Moonlight Over Paris 2 chords, tabs, tablatures, lyrics

Guitar lessons | Add/correct | Request | Top 50 tabs Artists:  A B C D E F G H I J K L M N O P Q R S T U V W X Y Z 0-9

Moonlight Over Paris 2 Guitar Tabs – Paolo Santos

CD, Sheet music, Poster

Do you like Moonlight Over Paris 2? Share with your friends now
ChordsChords v2Chords v3Chords v4TabsTabs v2Tabs v3Tabs v4Ukulele
Capo 3rd fret

Intro 
(2x)
  
---------------------|------------------------
--0-----0------0-----|--1-----0---------------
-----------2------0--|-----------0--0---------
-----0-------0-------|-----2------------------
---------------------|--3--------3--3---------
--3------------------|------------------------   

-------------------------------------------------------------------
--0-----0------0------------1--------------------------------------
-----------2---------0---------------------------------------------
-----0-------0--------------0--------------------------------------
---------------------3---------------------------------------------
--3----------------------------------------------------------------
"du du duuuuuuduuuuuduuuuduuuuu......"

-----------0------------------------------------------0------------
-------3--------------------3-----------3----------3---------------
---2---------------------0-----------0----------2------------------
0---------------------0-----------2----------0---------------------
-------------------------------3-----------------------------------
--------------------3----------------------------------------------
You say you've been overseas, I say over where?

-----------0------------------------------------------0------------
-------3--------------------3-----------3----------3-----0---------
---2---------------------0-----------0----------2------------------
0---------------------0-----------2----------0---------------------
-------------------------------3-----------------------------------
--------------------3----------------------------------------------
You say just a holiday,        my Alsatian heir.

---------1-------------------------------------------------0-------
------1-------------------1-------------1------------3--------3----
---2-------------------0-------------2------------0----------------
3-------------------2-------------3------------2--------2----------
-----------------3--------------------------3----------------------
-------------------------------1-----------------------------------
I say I've been working late, working over time

-----------0-------------------------------------0-------0------------------------
-------3--------------------3---------------3------------2-----1-----1------------
---2---------------------0---------------0---------------3---------0--------------
0---------------------0---------------2--------2---------0-------0----------------
-----------------------------------3----------------------------------------------
--------------------3-------------------------------------------------------------
Haven't seen that sun since sixty nine

Chorus

----------------------------------------------------------------------------------
---------3---------------------3-------------3--------------------------3---------
------0--------0------------0-------------0--------0-----------0--2--------0------
---0--------0------------0-------------2--------2-----------0--------0------------
------------------------------------3---------------------------------------------
3---------------------0----------------------------------3------------------------
Does the moonlight shine on Paris after the sun goes down?

---------------------------------------------------------------------------0------
---------3---------------------3----------------------3-----------------2------1--
------0--------0------------0----------------------0--------0--------3------------
---0--------0------------0----------------------2--------2--------0---------------
---------------------------------------------3------------------------------------
3---------------------0-----------------------------------------------------------
 If the London      bridge is fallin' would abybody hear a sound?

--------------------------------------------------------------2--------
----------3------------------3--------------3--------------------3-----
------0-------------------0--------------0-------0---------0-----------
---2-------------------0--------------2-------2---------0--------------
3-------------------2--------------3-----------------2-----------------
-----------------------------------------------------------------------
If you follow the sunset,          will it ever     end?

-----------------------------------------------------------------------
-------------3-----------3---------------3-----------------------------
----------0-----------0------------------0-----------------------------
-------2-----------0---------------------2-----------------------------
----0-----------2------------3-----------3-----------------------------
-----------------------------------------------------------------------
Oh does the    moonlight   shine on Paris?

-------------------------------------------------|---------------------
--------3---------------------0-----0------0-----|--1-----0------------
-0------2------------------------------2------0--|-----------0--0------
--------0------------------------0-------0-------|-----2---------------
-3-----------------------------------------------|--3--------3--3------
------------------------------3------------------|---------------------
Oh oooooooohhhhhhhhhhhhever there..........

(Intro 1X)

-----------------------------------------------------------------------
--0-----0------0------------1------------------------------------------
-----------2---------0------0------------------------------------------
-----0-------0--------------0------------------------------------------
---------------------3-------------------------------------------------
--3--------------------------------------------------------------------
"du du duuuuuduuuuuuuduuuuuuduu......   Oh,

Verse 2 (do the strings as in the first except for some variations:  look below...)
How can you just walk away, was it something that I said?
I see only black and white, you see green and red
You believe in miracles, water into wine
I'll believe when it makes the New York Times
Repeat Chorus
 
Intro 2x 
---------------------------------------------------------------------------------
--0-----0------0------------1----------------------------------------------------
-----------2---------0-----------------------------------------------------------
-----0-------0--------------0----------------------------------------------------
---------------------3-----------------------------------------------------------
--3------------------------------------------------------------------------------

"du du duuuuuduuuuuuduuuuuuududu......   Oh,

(Instrumental)

----------0h2h0-------------------2------------------------------2-3-2-----------
--------3-------3-----------------3--2----------------3--------3-------3---------
------2------------2----------0------0---0---------0---------2-----------2-------
----0-----------------0-----0-------------------2----------0---------------------
---------------------------------------------3-----------------------------------
-------------------------0-------------------------------------------------------

----------2h3h2--------------2---------------------------------------------------
-------3--3------------------3--2-------3--------3----1---3----------------------
-----2--------------------0-----0---0---------0-------0---2----------------------
---0--------------0-----0------------------0--------------0----------------------
----------------------------------------3-------------0--------------------------
---------------------0-----------------------------------------------------------
                                                     Oh oh...
Repeat Chorus
Intro 2x
Ending:
---------------------------------------------------------3----
--3------3---------3------3--3--------3----1---------1---3----
--0------2---------0----0----0-----0-------0------0-----------
---------0------------2---------0--------------2---------0----
--3----------------3---------2-------------3------------------
--------------------------------------------------------------
Will it ever end?

----------------2---------------2--------------------------------------
------------3------3------------3--------------------------------------
---------0------------0---------0--------------------------------------
------0-------------------0-----0--------------------------------------
---2----------------------------2--------------------------------------
-----------------------------------------------------------------------
 
***
Variations in Verse 2:
------------------------------------0h2h0------------------------------
---------------------3------------3-----------3------------------------
------------------0-------------2----------2-----2---------------------
---------------2--------------0----------------------------------------
------------3----------------------------------------------------------
-----------------------------------------------------------------------
...was it something that I said?

-----------0-------------2----------------------------------------------
--------3---------------------------------------------------------------
-----2---------------0--------------------------------------------------
--0---------------0-----------------------------------------------------
------------------------------------------------------------------------
---------------3--------------------------------------------------------
I see only     black and white...

-----------------------------------------------------------------0-----
------------1-------------------1-------------1------------3--------3--
---------2-------------------0-------------2------------0--------------
------3-------------------2-------------3------------2--------2--------
-----------------------3--------------------------3--------------------
0--1---------------------------------1---------------------------------
...You believe in miracles,         water into wine





Comments


Popular Paolo Santos tabs & chords
Magasin Bass Tabs
6, 8, 12 1 Chords
A Lovely Day Chords
Akoy Sayo Ikay Akin Chords
Mapansin 2 Chords
Naglalambing Chords
Princess 1 Chords
For You Tabs
Princess 1 Tabs
Penny Lane Ukulele


Song lyrics



↑ Back to top | Tablatures and chords are parodies/interpretations of the original songs. You may use it for private study, scholarship, research or language learning purposes only
© 2014 AZChords.com Contact us | Privacy policy | DMCA | Add/correct tabs | Request tabs | Top 50 tabs