» » »

Mapansin Tabs (ver.1)

Artists:  A B C D E F G H I J K L M N O P Q R S T U V W X Y Z # 

Mapansin Tabs (ver.1)

Paolo Santos
Rating:
4/5 (7 votes)

Hard to play? Try these video lessons and learn fast.
                Paolo Santos


Standard Tuning: (EADGBE)
Capo on 2nd fret

Intro:

E-0--2\1-----------
B-0--3\2--2-1-1----
G-1--2\1--2-2-0---- play 2x
D-2--4\3--2-2-2----
A-2--2\1--0-0-0----
E-0----------------

Verse:
Pakiramdam ko ay sumisigla...

E-0--2----------
B-0--3--2-1-1---
G-1--2--2-2-0--- play 2x
D-2--4--2-2-2---
A-2--2--0-0-0---
E-0-------------

Pre-chorus:
Ba't di mo man lang napuna...

E-2--4--2--4--2--4------
B-2--4--2--4--2--4------
G-2--4--2--4--2--4------
D-2--4--2--4--2--4------
A-4--6--4--6--4--6------
E-2--4--2--4--2--4------

lumalapit sayo..

E----2--------------
B-1--2--------------
G-0--2--------------
D-2--4--------------
A-0--2--------------
E-------------------

Adlib: same as intro

Chorus:
Araw at gabi...

E--0-0--0-0-0----------
B--2-0--2-1-1----------
G--2-1--2-2-0----------
D--2-2--2-2-2----------
A--0-2--0-0-0----------
E----0-----------------

at ginagawa ko ang lahat...

E-2--4-----2/3---------
B-2--4--1--2/3---------
G-2--4--0--2/3---------
D-2--4--2--4/5---------
A-4--6--0--2/3---------
E-2--4-----------------

Last verse:
pakiramdam ko ay sumisigla...

E-1--3----------
B-1--4--3-2-2---
G-2--3--3-3-1--- play 2x
D-3--5--3-3-3---
A-3--3--1-1-1---
E-1-------------

Ba't di mo man lang napuna...

E-3--5--3--5--3--5------
B-3--5--3--5--3--5------
G-3--5--3--5--3--5------
D-3--5--3--5--3--5------
A-5--7--5--7--5--7------
E-3--5--3--5--3--5------

lumalapit sayo... nanan*lig sayo...

E----3--------3---
B-2--3-----2--3---
G-1--3-----1--3---
D-3--5-----3--5---
A-1--3-----1--3---
E-----------------

Outro:
E-1--3----------         -1*-- 
B-1--4--3-2-2---         -1*--
G-2--3--3-3-1--- play 2x -2*--
D-3--5--3-3-3---         -3*--
A-3--3--1-1-1---         -3*--
E-1-------------         -1*--

=====¤w&_17=====
            
Hard to play? Try these video lessons and learn fast. | Correct




comments powered by Disqus
↑ Back to top | Tablatures and chords are parodies/interpretations of the original songs. You may use it for private study, scholarship, research or language learning purposes only