» » »

Knocks Me Off My Feet Tabs (ver.1)

Artists:  A B C D E F G H I J K L M N O P Q R S T U V W X Y Z # 

Knocks Me Off My Feet Tabs (ver.1)

Paolo Santos
Rating:
5/5 (4 votes)

Hard to play? Try these video lessons and learn fast.
                KNOCKS ME OFF MY FEET
Paolo Santos


Standard Tuning (EADGBE)

Intro:
E-------|
B-------|
G--5--4-|
D-------|
A-------|
E--3--3-|

Verse:

E-3-------------------3---|-3-3--|
B-5-------------------5---|-3-3--|
G-4---3--5----1--3----4---|-5-4--|
D-5---5--5----3--3----5---|-3-3--|
A-3---5--3----3--1----3---|-5-5--|
E-----3-------1-----------|-3-3--|

E-3-------------------3---|
B-5-------------------5---|
G-4---3--5----1--3----4---|
D-5---5--5----3--3----5---|
A-3---5--3----3--1----3---|
E-----3-------1-----------|

"i don't wanna.."

E-3-3---0-0----0-0---0-----------|
B-3-3---0-0----1-1---1-----------|
G-5-4---2-1----0-0---2-----------|
D-3-3---0-0----2-2---3-----------|
A-5-5---2-2----0-----------------|
E-3-3---0-0------3---------------|

"There's something bout.."

E-------|----------------|
B----3--|------2---3-----|
G---2-2-|--2-------2---5-|
D--3----|----------0---5-|
A-1-----|--0---4-------3-|
E-------|----------------|

"knocks me off.."

E------------------|--3----------|
B-----3---5--------|--3----------|
G-5---2---5--5--5--|--5----------|
D-5---0------5--5--|--3----------|
A-3-------------3--|--5----------|
E---------3--3-----|--3----------|

Chorus:

E--3---0-0---0-0---0---3----------|
B--5---0-0---1-1---1---3----------|
G--4---1-2---0-0---2---4----------|
D--5---0-0---2-2---3---3----------|
A--3---2-2---0---------5----------|
E------0-0-----3-------3----------|

E--3---0-0---0-0---0----3---3----------|
B--5---0-0---1-1---1----3---3----------|
G--4---1-2---0-0---2----5---4----------|
D--5---0-0---2-2---3----3---3----------|
A--3---2-2---0----------5---5----------|
E------0-0-----3--------3---3----------|

Last Chorus:

E-4--   ---4---1-1---1-1----1---4----|
B-4--   ---6---1-1---2-2----2---4----|
G-6--   ---5---3-2---1-1----3---5----|
D-4--   ---6---1-1---3-3----4---4----|
A-6--   ---4---3-3---1----------6----|
E-4--   -------1-1-----4--------4----|

=====¤w&_17=====
            
Hard to play? Try these video lessons and learn fast. | Correct




comments powered by Disqus
↑ Back to top | Tablatures and chords are parodies/interpretations of the original songs. You may use it for private study, scholarship, research or language learning purposes only