» » »

Hardin Tabs (ver.1)

Artists:  A B C D E F G H I J K L M N O P Q R S T U V W X Y Z # 

Hardin Tabs (ver.1)

Paolo Santos
Rating:
0/5 (0 votes)

Hard to play? Try these video lessons and learn fast.
                vErse I:
A9  A9/C#   A9/C,Em7
di pansin,kahit na
  E  break..
anong gawin
A9             A9/C#
wala na bang paraan?
A9/c     Em7
upang damdamin ko'y
  E break
malaman..

REF:
DM7              C#m
kahit na anong gawin
DM7             C#m
nananatili saking
 C#m
damdamin
   Bm             E break
anu bang mayron ka.?

Chorus:
        DM7
sa aking isip
       C#m
araw at gabi
        DM7
sa panaginip
          C#m
ika'y naron din
           DM7
ako'y na-ngangarap
         C#m
ika'y mapasakin
    Bm            E break
anu bang mayroon ka?

ba't di maalis.

Interlude:
A9-A/C-E-break..
Verse II:
  A9 A9/C#  A9/C  Em7
binibini, libutin ka
  E  break
sa aking panaginip
 DM7    C#m
o bakit ba.
 A9/C    Em7
hanggang pangarap
         E break..
ka na lang ba..

ADLIB:
DM7-C#m-
Bm-E BREAk!!!

used this tab sa adlib:

e|-------------7-9-10-10/12p-|12-10-9--------------9----|
b|------7-8-10---------------|-------12p-10-10h12----10-|
d|--7-9----------------------|--------------------------|
g|---------------------------|--------------------------|
a|---------------------------|--------------------------|
e|---------------------------|--------------------------|

e|-------------------------------|------------------------------------------|
b|-9-10-9--------10p10p-12-10-9p-|-------10p-10-12-12/14p-17-15-14----10/12-|
g|--------9-9/11-----------------|-6h7-9---------------------------14-------|
d|-------------------------------|------------------------------------------|
a|-------------------------------|------------------------------------------|
e|-------------------------------|------------------------------------------|

e|--------------------------|-----------------------|
b|--------------------------|-----------------------|
g|-----7p-7-6---------------|--9-7-6----------------|
d|-7h9--------7-7/9p-2/4-2p-|--------9-7-6---6-6/7--|
a|--------------------------|--------------9--------|
e|--------------------------|-----------------------|

REF:II
siguro sa aking
HARDIN
doon kita
makakapiling
anu bang mayroon ka??

REPEAT CHORUS:2X

OUTRO:
A9-A/C-E-break..
            
Hard to play? Try these video lessons and learn fast. | Correct




comments powered by Disqus
↑ Back to top | Tablatures and chords are parodies/interpretations of the original songs. You may use it for private study, scholarship, research or language learning purposes only