» » »

Barely Breathing Tabs (ver.1)

Artists:  A B C D E F G H I J K L M N O P Q R S T U V W X Y Z # 

Barely Breathing Tabs (ver.1)

Paolo Santos
Rating:
5/5 (3 votes)

Hard to play? Try these video lessons and learn fast.
                BARELY BREATHING
Paolo Santos


Standard Tuning (EADGBE)

Intro:

E-0--0--0---0-2-3-2--
B-0--2--3---3-3-3-3--
G-0--0--0---2-2-2-2--play 2x
D-2--2--2---0-0-0-0--
A-2--0--3------------
E-0------------------

Verse:
"i know what you doin.."

E-0--0\0--0--0--        
B-0--3\2--3--3--        
G-0--0\0--0--2--play 4x 
D-2--2\2--2--0--        
A-2--0\0--3-----        
E-0-------------        

"i said goodbye.."

E--1-
B--1-
G--2-
D--3-
A--3-
E--1-

Chorus:
"coz i am barely breathing.."

E--0--0--0--1--|-0--0--0\0--1-
B--3--3--3--1--|-3--3--3\2--1-
G--0--0--0--2--|-0--0--0\0--2-
D--2--0--2--3--|-2--0--2\2--3-
A--3--2--0--3--|-3--2--0\0--3-
E-----3-----1--|----3-------1-

Adlib:

E--1-
B--1-
G--2-continuous
D--3-
A--3-
E--1-

Bridge:
"come to find.."

E-2--0--0--1-|
B-3--1--3--1-|
G-2--2--0--2-|play 2x
D-0--2--2--3-|
A----0--3--3-|
E----------1-|

E--1-
B--1-
G--2-continuous
D--3-then
A--3-hold
E--1-

End at G.


=====¤w&_17=====
            
Hard to play? Try these video lessons and learn fast. | Correct




comments powered by Disqus
↑ Back to top | Tablatures and chords are parodies/interpretations of the original songs. You may use it for private study, scholarship, research or language learning purposes only