» » »

Paolo Santos, Akoy Sayo Ikay Akin Tabs (ver.1)

Artists:  A B C D E F G H I J K L M N O P Q R S T U V W X Y Z # 

Akoy Sayo Ikay Akin Tabs (ver.1)

Paolo Santos Tabs
 Rating:
4/5 (4 votes)
Akoy Sayo Ikay Akin lessons Tabs too difficult? Try these video lessons and learn fast
1
                -------------------------------------------------------------------------------
                             ako'y sa'yo ika'y akin - Paolo Santos        
-------------------------------------------------------------------------------

naulit to no?

intro at solo.....kunin niyo na lang chords sa iba....tinatamad ako e...... 
paki-rate....na rin....
Tuning:

intro 
e|-----0----------------5-----------------------------------7-----------|
B|-2---2---2--5-----------7-----6---------2--2--5---------7---7----6----|
G|---1-----3--6-------7-----7---7-------1----3--6-------7-------7--7----|
D|------------------7---------7-------2---------------7-----------------|
A|-0-------2--4---5-------------5---0--------2--4---5--------------5----|
E|----------------------------------------------------------------------|

solo 

e|----------------------------------------------------------------------|
B|-----------------5-------------------------------------------------6--|
G|------------4/6-----6--4h6---------4-------------------------5/7------|
D|--------5-7-----------------7-7--7-----------------------5/7----------|
A|-----5-7-----------------------------7---7-5---------5h7--------------|
E|-5-7-----------------------------------------7-5-5h7------------------|

e|---------------5/7--5------------------12-10-8-10---------------------|
B|---------------6/8--6-----4-2-0-------------------12-10-8br----8bpause|
G|-7-5\3-5p3----------------6-4-2--h2-------------------------9---------|
D|-----------3------------/7-------0------------------------------------|
A|----------------------------------------------------------------------|
E|----------------------------------------------------------------------|

e|-7------------------|
B|---10-8-7-8-7---7---|
G|--------------9-----|
D|--------------------|
A|--------------------|
E|--------------------|

************************************

| /   slide up
| \   slide down
| h   hammer-on
| p   pull-off
| b   Bend
| br bend and release

************************************
            
Submit corrections

comments powered by Disqus
↑ Back to top | Paolo Santos Tabs for Akoy Sayo Ikay Akin. Lyrics for acoustic guitar and electric guitar. 1 Tablatures and chords are parodies/interpretations of the original songs. You may use it for private study, scholarship, research or language learning purposes only