» » »

Paolo Nutini, Tricks Of The Trade Tabs (ver.1)

Artists:  A B C D E F G H I J K L M N O P Q R S T U V W X Y Z # 

Tricks Of The Trade Tabs (ver.1)

Paolo Nutini Tabs
 Rating:
4/5 (4 votes)
Tricks Of The Trade lessons Tabs too difficult? Try these video lessons and learn fast
1
                THIS IS TABBED FROM WATCHING A VIDEO OF PAOLO AT THE MONTREUX JAZZ FESTIVAL SO IM 
99% SURE ITS SPOT ON

JUST HAD TO WORK OUT THE TUNING WHICH IS OPEN D:

D
A
F#
D
A
D

I'VE JUST TABBED IT OUT IN A BASIC STRUMMING STRUCTURE, SO FIDDLE ABOUT IF YOU WISH, I 
IT SOUNDS PRETTY MUCH LIKE THE RECORDING BUT JUST LISTEN TO THE ABLUM TO GET THE RYTHYM RIGHT


THIS IS MY FIRST TAB SO COMMENTS OR CORRECTIONS WELCOME

INTRO


D |------0-0-----0-0---0-0-----0-0-----0-0---0-0------0-0-----0-0---0-0------0-0-----0-0---0-0--|
A |------0-0-----0-0---0-0-----0-0-----0-0---0-0------0-0-----0-0---0-0------0-0-----0-0---0-0--|
F#|------0-0-----0-0---0-0-----0-0-----0-0---0-0------0-0-----0-0---0-0------0-0-----0-0---0-0--|X2
D |--0-------0-------0-----4-------4-------4-----5--------5-------5-----5--------5-------5------|
A |--0-------0-------0-----4-------4-------4-----5--------5-------5-----5--------5-------5------|
D |--0-------0-------0-----4-------4-------4-----5--------5-------5-----5--------5-------5------|



VERSE


D |------0-0-----0-0---0-0-----0-0-----0-0---0-0------0-0-----0-0---0-0------0-0-----0-0---0-0--|
A |------0-0-----0-0---0-0-----0-0-----0-0---0-0------0-0-----0-0---0-0------0-0-----0-0---0-0--|
F#|------0-0-----0-0---0-0-----0-0-----0-0---0-0------0-0-----0-0---0-0------0-0-----0-0---0-0--|X2
D |--0-------0-------0-----4-------4-------4-----5--------5-------5-----7--------7-------7------|
A |--0-------0-------0-----4-------4-------4-----5--------5-------5-----7--------7-------7------|
D |--0-------0-------0-----4-------4-------4-----5--------5-------5-----7--------7-------7------|


Was it love or recognition that has healed this man's condition?
Oh I'm hoping and wishing that this bird won't fly away.
And we can see life hand in hand
the green, the blue, the rough, the sand
and in our time and in our land, we'll savour every day.

CHORUS


D |------0-0-----0-0---0-0-----0-0-----0-0---0-0------0-0-----0-0---0-0------0-0-----0-0---0-0--|
A |------2-2-----2-2---2-2-----2-2-----2-2---2-2------0-0-----0-0---0-0------0-0-----0-0---0-0--|
F#|------1-1-----1-1---1-1-----1-1-----1-1---1-1------0-0-----0-0---0-0------0-0-----0-0---0-0--|
D |--2-------2-------2-----2-------2-------2-----0--------0-------0-----4--------4-------4------|
A |--2-------2-------2-----2-------2-------2-----0--------0-------0-----4--------4-------4------|
D |--0-------0-------0-----0-------0-------0-----0--------0-------0-----4--------4-------4------|


D |------0-0-----0-0---0-0-----0-0-----0-0---0-0------0-0-----0-0---0-0------0-0-----0-0---0-0--|
A |------0-0-----0-0---0-0-----0-0-----0-0---0-0------0-0-----0-0---0-0------0-0-----0-0---0-0--|
F#|------0-0-----0-0---0-0-----0-0-----0-0---0-0------0-0-----0-0---0-0------0-0-----0-0---0-0--|
D |--5-------5-------5-----5-------5-------5-----7--------7-------7-----7--------7-------7------|
A |--5-------5-------5-----5-------5-------5-----7--------7-------7-----7--------7-------7------|
D |--5-------5-------5-----5-------5-------5-----7--------7-------7-----7--------7-------7------|


And oh how our glory may fade. Babe,
Well, at least we've learned some things along the way.

ohhhhhhhh

VERSE


D |------0-0-----0-0---0-0-----0-0-----0-0---0-0------0-0-----0-0---0-0------0-0-----0-0---0-0--|
A |------0-0-----0-0---0-0-----0-0-----0-0---0-0------0-0-----0-0---0-0------0-0-----0-0---0-0--|
F#|------0-0-----0-0---0-0-----0-0-----0-0---0-0------0-0-----0-0---0-0------0-0-----0-0---0-0--|X2
D |--0-------0-------0-----4-------4-------4-----5--------5-------5-----7--------7-------7------|
A |--0-------0-------0-----4-------4-------4-----5--------5-------5-----7--------7-------7------|
D |--0-------0-------0-----4-------4-------4-----5--------5-------5-----7--------7-------7------|


You took me from my bubble knowing my defense was weak,
And you sat there and you listened anytime I chose to speak,
And you gathered from my pleas to you that I am but a clown,
And I fear only a hero can defeat these demons now.


CHORUS 2


D |------0-0-----0-0---0-0-----0-0-----0-0---0-0------0-0-----0-0---0-0------0-0-----0-0---0-0--|
A |------2-2-----2-2---2-2-----2-2-----2-2---2-2------0-0-----0-0---0-0------0-0-----0-0---0-0--|
F#|------1-1-----1-1---1-1-----1-1-----1-1---1-1------0-0-----0-0---0-0------0-0-----0-0---0-0--|
D |--2-------2-------2-----2-------2-------2-----0--------0-------0-----4--------4-------4------|
A |--2-------2-------2-----2-------2-------2-----0--------0-------0-----4--------4-------4------|
D |--0-------0-------0-----0-------0-------0-----0--------0-------0-----4--------4-------4------|


D |------0-0-----0-0---0-0-----0-0-----0-0----|
A |------0-0-----0-0---0-0-----0-0-----0-0----|
F#|------0-0-----0-0---0-0-----0-0-----0-0----|
D |--5-------5-------5-----7-------7-------7--|
A |--5-------5-------5-----7-------7-------7--|
D |--5-------5-------5-----7-------7-------7--|


Oh how our glory may fade. Babe,
Well at least we've learned some tricks of the trade

BREAKDOWN

D |------0-0-----0-0---0-0-----0-0-----0-0---0-0------0-0-----0-0---0-0------0-0-----0-0---0-0--|
A |------0-0-----0-0---0-0-----0-0-----0-0---0-0------0-0-----0-0---0-0------0-0-----0-0---0-0--|
F#|------0-0-----0-0---0-0-----0-0-----0-0---0-0------0-0-----0-0---0-0------0-0-----0-0---0-0--|
D |--0-------0-------0-----4-------4-------4-----5--------5-------5-----5--------5-------5------|
A |--0-------0-------0-----4-------4-------4-----5--------5-------5-----5--------5-------5------|
D |--0-------0-------0-----4-------4-------4-----5--------5-------5-----5--------5-------5------|


D |------0-0-----0-0---0-0-----0-0-----0-0---0-0------0-0-----0-0---0-0------0-0-----0-0---0-0--|
A |------0-0-----0-0---0-0-----0-0-----0-0---0-0------0-0-----0-0---0-0------0-0-----0-0---0-0--|
F#|------0-0-----0-0---0-0-----0-0-----0-0---0-0------0-0-----0-0---0-0------0-0-----0-0---0-0--|
D |--0-------0-------0-----4-------4-------4-----5--------5-------5-----7--------7-------7------|
A |--0-------0-------0-----4-------4-------4-----5--------5-------5-----7--------7-------7------|
D |--0-------0-------0-----4-------4-------4-----5--------5-------5-----7--------7-------7------|




CHORUS 3/OUTRO


D |------0-0-----0-0---0-0-----0-0-----0-0---0-0------0-0-----0-0---0-0------0-0-----0-0---0-0--|
A |------2-2-----2-2---2-2-----2-2-----2-2---2-2------0-0-----0-0---0-0------0-0-----0-0---0-0--|
F#|------1-1-----1-1---1-1-----1-1-----1-1---1-1------0-0-----0-0---0-0------0-0-----0-0---0-0--|
D |--2-------2-------2-----2-------2-------2-----4--------4-------4-----4--------4-------4------|
A |--2-------2-------2-----2-------2-------2-----4--------4-------4-----4--------4-------4------|
D |--0-------0-------0-----0-------0-------0-----4--------4-------4-----4--------4-------4------|


D |------0-0-----0-0---0-0-----0-0-----0-0---0-0------0-0-----0-0---0-0------0-0-----0-0---0-0--|
A |------0-0-----0-0---0-0-----0-0-----0-0---0-0------0-0-----0-0---0-0------0-0-----0-0---0-0--|
F#|------0-0-----0-0---0-0-----0-0-----0-0---0-0------0-0-----0-0---0-0------0-0-----0-0---0-0--|
D |--5-------5-------5-----5-------5-------5-----7--------7-------7-----7--------7-------7------|
A |--5-------5-------5-----5-------5-------5-----7--------7-------7-----7--------7-------7------|
D |--5-------5-------5-----5-------5-------5-----7--------7-------7-----7--------7-------7------|


And as time shall inevitably move on.
Well at least we'll have four strong legs to stand on - to keep us...

THEN FINISH ON

D |-----
A |-----
F#|-----
D |--0--
A |--0--
D |--0--


...alive
            
Submit corrections

comments powered by Disqus
↑ Back to top | Paolo Nutini Tabs for Tricks Of The Trade. Lyrics for acoustic guitar and electric guitar. 1 Tablatures and chords are parodies/interpretations of the original songs. You may use it for private study, scholarship, research or language learning purposes only