>
 >
Yesterday Dont Mean Shit 2

Yesterday Dont Mean Shit 2 Guitar Tabs

Pantera - Yesterday Dont Mean Shit 2 chords, tabs, tablatures, lyrics

Guitar lessons | Add/correct | Request | Top 50 tabs Artists:  A B C D E F G H I J K L M N O P Q R S T U V W X Y Z 0-9

Yesterday Dont Mean Shit 2 Guitar Tabs – Pantera

CD, Sheet music, Poster

Do you like Yesterday Dont Mean Shit 2? Share with your friends now
Tabs
----------------------------------------------------------------------------
Yesterday dont mean shit-Pantera
----------------------------------------------------------------------------

Tuning: Drop D
Intro- repeat without the slide
e|--------------------------------------------------------------------------|
B|--------------------------------------------------------------------------|
G|--------------------------------------------------------------------------|
D|--------------------------------------------------------------------------|
A|--------------------------------------------------4-----------------------|
D|-12\-0-00-6-0-3-00-00-6-0-3-00-00-6-0-3-00-00-1-0-4-----------------------|
       pm-- - - - -- -- - - - -- -- - - - -- -- - -

verse- repeat x3
e|---------------------------------------------------------------------------|
B|---------------------------------------------------------------------------|
G|---------------------------------------------------------------------------|
D|---------------------------------------------------------------------------|
A|-5----5----55----6----6----66-6\3------------------------------------------|
D|-5-55-5-55-55-55-6-66-6-66-66-6\3-0-00-6-0-3-00-00-6-0-3-00-00-6-0-3-00-00-|
pm   --   --    --   --   --        - -- - - - -- -- - - - -- -- - - - -- --

          on 4th time
e|-------]------------------------------------------------------------------|
B|-------]------------------------------------------------------------------|
G|-------]------------------------------------------------------------------|
D|-------]------------------------------------------------------------------|
A|----4--]--3----3----33----1----1----11-1/3--------------------------------|
D|1-0-4--]--3-33-3-33-33-33-1-11-1-11-11-1/3-0-00-6-0-3-00-00-6-0-3-00-00-6-|
  - -         --   --    --   --   --        - -- - - - -- -- - - - -- -- -
e|---------------------------------------------------------------------------|
B|---------------------------------------------------------------------------|
G|---------------------------------------------------------------------------|
D|-------------------------------------------------5-------------------------|
A|---------------4-----------------------------3-5-3-------------------------|
D|-0-3-00-00-1-0-4-0-00-6-0-3-00-00-6-0-3-12\--3-5---------------------------|
   - - -- -- - -   - -- - - - -- -- - - -

Chorus                                                 x2
e|--------------------------------------------------------------------------|
B|--------------------------------------------------------------------------|
G|--------------------------------------------------------------------------|
D|--7-5-7---------5-7-------88-7-5-7---------5-7-------88-------------------|
A|--5-3-5-0-3-5-0-3-5-0-3-5-66-5-3-5-0-3-5-0-3-5-0-3-5-66-------------------|
D|--------0-3-5-0-----0-3-5----------0-3-5-0-----0-3-5----------------------|

then
e|--------------------------------------------------------------------------|
B|--------------------------------------------------------------------------|
G|--------------------------------------------------------------------------|
D|-4-3-4---------3-4-------55-4-3-4---------3-4-----------5-7-5-7---------5-|
A|-2-1-2-0-1-2-0-1-2-0-1-2-33-2-1-2-0-1-2-0-1-2-0-1-2-3-5-3-5-3-5-0-3-5-0-3-|
D|-------0-1-2-0-----0-1-2----------0-1-2-0-----0-1-2-3-5---------0-3-5-0---|

                                 2nd chorus end
e|------------------------------]--------------------------------------------|
B|------------------------------]--------------------------------------------|
G|------------------------------]--------------------------------------------|
D|-7-------88-7-5-7---------5-7-]-6-5-4-3-2----------------------------------|
A|-5-0-3-5-66-5-3-5-0-3-5-0-3-5-]-4-3-2-1-0----------------------------------|
D|---0-3-5----------0-3-5-0-----]-----------/12-00-11-0-10-0-9-0-880-770-660-|
pm                                              --    -    -   - --- --- ---
e|---------------------|
B|---------------------|
G|---------------------|
D|---------------------|
A|-5-------------------|
D|-5-------------------|
repeat a few times into solo


************************************

| /   slide up
| \   slide down
| h   hammer-on
| p   pull-off
| ~   vibrato
| +   harmonic
| x   Mute note
| b   Bend
| pb  Pre-bend
| br  Bend release
| pbr Pre-bend release
| brb Bend release bend

************************************





Comments


Popular Pantera tabs & chords
Fucking Hostile Chords
Cat Scratch Fever 1 Tabs
Drag The Waters 1 Tabs
Floods Tabs
Hard Lines, Sunken Cheeks Tabs
Slaughtered Tabs
Walk 9 Tabs
We'll Grind That Axe For A Long Time Tabs
Yesterday Don't Mean Shit Tabs
Youve Got To Belong Tabs


Song lyrics



↑ Back to top | Tablatures and chords are parodies/interpretations of the original songs. You may use it for private study, scholarship, research or language learning purposes only
© 2014 AZChords.com Contact us | Privacy policy | DMCA | Add/correct tabs | Request tabs | Top 50 tabs