>
 >
Walk Ver

Walk Ver Guitar Tabs

Pantera - Walk Ver chords, tabs, tablatures, lyrics

Guitar lessons | Add/correct | Request | Top 50 tabs Artists:  A B C D E F G H I J K L M N O P Q R S T U V W X Y Z 0-9

Walk Ver Guitar Tabs – Pantera

CD, Sheet music, Poster

Do you like Walk Ver? Share with your friends now
Tabs
Tuning: down 1 step

D G C F A D

Intro: Riff A
D|-------------------------------------------------------------|
A|-------------------------------------------------------------|
F|-------------------------------------------------------------|
C|---------1/2 bend--------------------------------------------|
G|-------------------------------------------------------------|
D|--0---0--1^---0-------0--1^----0-----0--1^--0----0--1^---0---|

D|-------------------------------------------------------------||
A|-------------------------------------------------------------||
F|-------------------------------------------------------------||o
C|-------------------------------------------------------------||o
G|-------------------------------------------------------------||
D|--0---1^----0------0--1^----0------0--1^---0---/10\h4--/18-\-||

Riff B (Chorus)
D|---------------------------------------------------------------|
A|---------------------------------------------------------------|
F|----------------------5-----------------------3----------------|
C|----------------------5-----------------------3----------------|
G|----------------------3-----------------------1----------------|
D|--0---0--1^----0---0--3----0--0-1^---0----0---1---0--0--1^---0-|

D|--------------------------------------------||
A|--------------------------------------------||
F|--8-----------------------------------------||o
C|--8-----------------------------------------||o
G|--6------------3-----5-----6-----5-----3----||
D|--6---0--0--0--1--0--3--0--4--0--3--0--1----||
pm     .........   ...   ...   ...   ...

Fill:
D|----------------------------------------------|
A|----------------------------------------------|
F|----------------------------------------------|
C|----------------------------------------------|
G|-----------3-------5-------6-------5-------3--|
D|--0--0--0--1---0---3---0---4---0---3---0---1--|
pm..........    ...     ...     ...     ...

D|-------------------------------------------------------------|
A|-------------------------------------------------------------|
F|-------------------------------------------------------------|
C|---------1/2 bend--------------------------------------------|
G|-------------------------------------------------------------|
D|--0---0--1^---0-------0--1^----0-----0--1^--0----0--1^---0---|

D|-------------------------------------------------------------||
A|-------------------------------------------------------------||
F|-----------------------------------------------8---8-8-8--8--||o
C|-----------------------------------------------8---8-8-8--8--||o
G|-----------------------------------------------6---6-6-6--6--||
D|--0---1^----0------0--1^----0------0--1^---0---6---6-6-6--6--||

Pre-Chorus:
D|-----------------------------------|
A|-----------------------------------|
F|--7~------------3~----------4~-----|
C|--7~------------3~----------4~-----|
G|--5~------------1~----------2~-----|
D|--5~------------1~----------2~-----|

D|-------------------------------------------------------------|
A|-------------------------------------------------------------|
F|-------------------------------------------------------------|
C|---------1/2 bend--------------------------------------------|
G|-------------------------------------------------------------|
D|--0---0--1^---0-------0--1^----0-----0--1^--0----0--1^---0---|

D|----------------------------------------------------|
A|----------------------------------------------------|
F|--7~------------3~----------------------------------|
C|--7~------------3~---------5~-----------4~--------3-|
G|--5~------------1~---------5~-----------4~--------3-|
D|--5~------------1~---------3~-----------2~--------1-|

Solo: 
D|---------------------------------------------------12--------|
A|--15-^----^-----15^-~------12----12-------------------15p12--|
F|--14--------------------------15----15p14p12h14h15-----------|
C|-------------------------------------------------------------|
G|-------------------------------------------------------------|
D|-------------------------------------------------------------|
gradual bend^^^

D|----------------12----------------14^----12-14------12--16------12-|
A|-------------------15p12-----------------------15^---------15^-----|
F|-15p14p12h14h15----------15p14p12----------------------------------|
C|-------------------------------------------------------------------|
G|-------------------------------------------------------------------|
D|-------------------------------------------------------------------|

D|--------12--16p12---12-16p12-12h16p12---12----------------------------|
A|-15^--------------15------------------15---15-12h15p12----12----------|
F|-------------------------------------------------------15----15p14p12-|
C|----------------------------------------------------------------------|
G|----------------------------------------------------------------------|
D|----------------------------------------------------------------------|

D|----------------------------------------------------------------------|
A|--------------------------------------------2 step-----2 1/2 bend-----|
F|-----14------12h13-----12h13p12----12h13---12h13^---12h13^------------|
C|--14-----14---------------------14------------------------------------|
G|----------------------------------------------------------------------|
D|----------------------------------------------------------------------|

D|---------------------------15---17---18----19^----\-------------------|
A|-------------------/17---------------------1 1/2--------5/7\5---------|
F|--13^---------x\----------------------------bend--------5/7\5---------|
C|--------------x\-------------------------------------------------7p5--|
G|--------------x\------------------------------------------------------|
D|----------------------------------------------------------------------|

D|-------8h9p8p5--------------------------------------------------------|
A|----------------7h8p7p5-----------------------------------------------|
F|-------------------------6h7p6^-----7^-----7^-------7p5------2----2/14|
C|--7-------------------------2 1/2 bend--------------------------------|
G|----------------------------------------------------------------------|
D|----------------------------------------------------------------------|

D|----------------------------------------------------------------------|
A|----------------------------------------------------------------------|
F|--2--/--14----------2--/-14------2-/-14---------14-------14-------14--|
C|--------------------------------------------14-----14\13----13/14-----|
G|----------------------------------------------------------------------|
D|----------------------------------------------------------------------|

D|---------------------------------------------------10------13-------16|
A|-----------------------------------------------5/9----9/12----12/15---|
F|--------14-------14----14----14^-----14-\-----------------------------|
C|--14/13----13/14----14----14------------------------------------------|
G|----------------------------------------------------------------------|
D|----------------------------------------------------------------------|


D|--------19-------22----22----22^-----------------------------|
A|--15/18----18/21----21----21----------22^----------------x\--|
F|---------------------------------------------------------x\--|
C|---------------------------------------------------------x\--|
G|-------------------------------------------------------------|
D|-------------------------------------------------------------|
Shred that FOOLS!!! =)

Breakdown:
D|-------------------------------------------------------------|
A|-------------------------------------------------------------|
F|-------------------------------------------------------------|
C|---------1/2 bend--------------------------------------------|
G|-------------------------------------------------------------|
D|--0---0--1^---0-------0--1^----0-----0--1^--0----0--1^---0---|

D|-------------------------------------------------------------||
A|-------------------------------------------------------------||
F|-------------------------------------------------------------||o
C|-------------------------------------------------------------||o
G|-------------------------------------------------------------||
D|--0---1^----0------0--1^----0------0--1^---0---/10\6/21--21^-||

Outro:
D|--------------------------------------------------------------------||
A|--------------------------------------------------------------------||
F|--------------------------------------------------------------------||o
C|-------------1/2 bends----------------------------------------------||o
G|--------------------------------------------------------------------||
D|--0---0--0---1^-----0---0---0--1^----0--0---0--1^----0--0--0--1^--0-||
pm...........       ............     ...........       .......





Comments


Popular Pantera tabs & chords
Mouth For War 2 Bass Tabs
Pre Hibernation 1 Bass Tabs
This Love 3 Bass Tabs
Uplift Bass Tabs
Cemetery Gates (Solo) Tabs
Cowboys From Hell Tuning Advice Tabs
Five Minutes Alone 1 Tabs
Good Friends And A Bottle Of Pills Tabs
I Am The Night Tabs
We'll Grind That Axe For A Long Time Tabs


Song lyrics



↑ Back to top | Tablatures and chords are parodies/interpretations of the original songs. You may use it for private study, scholarship, research or language learning purposes only
© 2014 AZChords.com Contact us | Privacy policy | DMCA | Add/correct tabs | Request tabs | Top 50 tabs