>
 >
Throes Of Rejection

Throes Of Rejection Bass Tabs

Pantera - Throes Of Rejection chords, tabs, tablatures, lyrics

Guitar lessons | Add/correct | Request | Top 50 tabs Artists:  A B C D E F G H I J K L M N O P Q R S T U V W X Y Z 0-9

Throes Of Rejection Bass Tabs – Pantera

CD, Sheet music, Poster

Do you like Throes Of Rejection? Share with your friends now
Bass TabsTabsTabs v2
THROES OF REJECTION (Bassline)
                             As recorded by Pantera
                     (From the 1994 Album FAR BEYOND DRIVEN)

Words by Philip Anselmo

Music by Pantera

Gtr I (D G C F) - 'Bass'

   Intro
    Q=138
   4/4
    Gtr I
    E S S S E S E E Q    E S S S E S E E Q
||---------------------|--------------------|
||o--------------------|--------------------|
||o--------------------|--------------------|
||--0-0-0-0-0-0-0-0----|-0-0-0-0-0-0-0-0----|


  E S S S E S E E Q    E S S S E S E E Q    6x
|--------------------|----------------------||
|--------------------|---------------------o||
|--------------------|---------------------o||
|-0-0-0-0-0-0-0-0----|-0-0-0-0-0-0-0-0------||


   Pre-Verse
    E S S S E S E E Q    E S S S E S E E Q
||---------------------|--------------------|
||o--------------------|--------------------|
||o--------------------|--------------------|
||--0-0-0-0-0-0-0-0----|-0-0-0-0-0-0-0-0----|


                                             2/4
  E S S S E S E E Q    E S S S E S E E Q      W
|--------------------|---------------------||------|
|--------------------|--------------------o||------|
|--------------------|--------------------o||------|
|-0-0-0-0-0-0-0-0----|-0-0-0-0-0-0-0-0-----||------|


   4/4
    E S S S E S E E Q    S S S E S S S S E S Q
||---------------------|------------------------|
||o--------------------|------------------------|
||o--------------------|------------------------|
||--0-0-0-0-0-0-0-0----|-0-0-0-3-0-0-0-0-3-0-5--|


  S S S S Q  H      S S S E S S S S E S S S E
|-----------------|----------------------------||
|-----------------|---------------------------o||
|-----------------|---------------------------o||
|-0-0-0-3---------|-0-0-0-3-0-0-0-0-3-0-3S5S7--||


  S S S E S S S S E S Q    S S S E S S S S E S S S E
|------------------------|---------------------------|
|------------------------|---------------------------|
|------------------------|---------------------------|
|-0-0-0-3-0-0-0-0-3-0-5--|-0-0-0-3-0-0-0-0-3-0-3S5S7-|


  S S S E S S S S E S Q    S S S E S S S S E S S S E
|------------------------|----------------------------|
|------------------------|----------------------------|
|------------------------|----------------------------|
|-0-0-0-3-0-0-0-0-3-0-5--|-0-0-0-3-0-0-0-0-3-0-3S5S7--|


   Verse 1
    E S S S E S E E Q    E S S S E S E E Q
||---------------------|--------------------|
||o--------------------|--------------------|
||o--------------------|--------------------|
||--0-0-0-0-0-0-0-0----|-0-0-0-0-0-0-0-0----|


  E S S S E S E E Q    E S S S E S E E Q   4x
|--------------------|---------------------||
|--------------------|--------------------o||
|--------------------|--------------------o||
|-0-0-0-0-0-0-0-0----|-0-0-0-0-0-0-0-0-----||


 Chorus
  E E E E Q  E E   E E Q  H      E E E E Q  E E   E E Q  H
|----------------|-------------|----------------|-------------|
|----------------|-------------|----------------|-------------|
|----------------|--------3----|----------------|--------1----|
|-0-----0----0---|---0---------|-0-----0----0---|---0---------|


  E E E E Q  E E   E E Q  H      E E E E Q  E E   E E Q  E E Q
|----------------|-------------|----------------|---------------|
|----------------|-------------|----------------|---------------|
|----------------|--------3----|----------------|---------------|
|-0-----0----0---|---0---------|-0-----0----0---|---0----0------|


 Interlude
  E S S S E S E E Q    E S S S E S E E Q
|--------------------|--------------------|
|--------------------|--------------------|
|--------------------|--------------------|
|-0-0-0-0-0-0-0-0----|-0-0-0-0-0-0-0-0----|


  E S S S E S E E Q    E E Q  E E E E
|--------------------|----------------|
|--------------------|----------------|
|--------------------|----------------|
|-0-0-0-0-0-0-0-0----|-0-0----3-1-3-1-|


  S S S E S S S S E S Q    S S S E S S S S E S S S E
|------------------------|---------------------------|
|------------------------|---------------------------|
|------------------------|---------------------------|
|-0-0-0-3-0-0-0-0-3-0-5--|-0-0-0-3-0-0-0-0-3-0-3S5S7-|


  S S S E S S S S E S Q    S S S E S S S S E S S S E
|------------------------|----------------------------|
|------------------------|----------------------------|
|------------------------|----------------------------|
|-0-0-0-3-0-0-0-0-3-0-5--|-0-0-0-3-0-0-0-0-3-0-3S5S7--|


   Verse 2
    E S S S E S E E Q    E S S S E S E E Q
||---------------------|--------------------|
||o--------------------|--------------------|
||o--------------------|--------------------|
||--0-0-0-0-0-0-0-0----|-0-0-0-0-0-0-0-0----|


  E S S S E S E E Q    E S S S E S E E Q   4x
|--------------------|---------------------||
|--------------------|--------------------o||
|--------------------|--------------------o||
|-0-0-0-0-0-0-0-0----|-0-0-0-0-0-0-0-0-----||


 Chorus
  E E E E Q  E E   E E Q  H      E E E E Q  E E   E E Q  H
|----------------|-------------|----------------|-------------|
|----------------|-------------|----------------|-------------|
|----------------|--------3----|----------------|--------1----|
|-0-----0----0---|---0---------|-0-----0----0---|---0---------|


  E E E E Q  E E   E E Q  H      E E E E Q  E E   E E Q  E E Q
|----------------|-------------|----------------|---------------|
|----------------|-------------|----------------|---------------|
|----------------|--------3----|----------------|---------------|
|-0-----0----0---|---0---------|-0-----0----0---|---0----0------|


   Guitar Solo
    S S S S S E S E E Q    S S S S +S  S S S S E S S S E
||-----------------------|-------------------------------|
||o----------------------|-------------------------------|
||o----------------------|-------------------------------|
||--0-0-0-0-0-3-0-0------|-0-0-0-3-(3)-0-0-0-0-3-5-5-6-5-|


  S S S S S E S E E Q    S S S E S S S S E S S S E
|----------------------|-----------------------------||
|----------------------|----------------------------o||
|----------------------|----------------------------o||
|-0-0-0-0-0-3-0-0------|-0-0-0-3-0-0-0-0-3-5-3S5S7---||


  Q.   Q.   Q    +E  Q.   Q  Q
|--------------|----------------|
|--------------|----------------|
|-0----2-------|-----0----2--0--|
|-----------3--|-(3)------------|


  S S S S S E S E E Q    S S S E S S S S E S S S E
|----------------------|----------------------------|
|----------------------|----------------------------|
|----------------------|----------------------------|
|-0-0-0-0-0-3-0-0------|-0-0-0-3-0-0-0-0-3-5-5-6-5--|


  S S S S S E S E E Q    S S S E S S S S E S S S E
|----------------------|---------------------------|
|----------------------|---------------------------|
|----------------------|---------------------------|
|-0-0-0-0-0-3-0-0------|-0-0-0-3-0-0-0-0-3-5-3S5S7-|


  S S S S E S S S S Q  E   S S S E S S S S E S S S E
|------------------------|-----------------------------|
|------------------------|-----------------------------|
|------------------------|-----------------------------|
|-0-0-0-0---0-0-0-0------|-0-0-0-3-0-0-0-0-3-5-5-6-5---|


  S S S S S E S E E Q    S S S E S S S S E S S S E
|----------------------|---------------------------|
|----------------------|---------------------------|
|----------------------|---------------------------|
|-0-0-0-0-0-3-0-0------|-0-0-0-3-0-0-0-0-3-5-3S5S7-|


    Q.   Q.   Q    +E  Q.   Q  Q
||---------------|------------------||
||o--------------|-----------------o||
||o-0----2-------|-----0----2--0---o||
||------------3--|-(3)--------------||


  E E E E E E E E   E E E E Q  Q    E E E E E E E E   E E E E Q  Q
|-----------------|---------------|-----------------|---------------|
|---2-----3-------|---------------|---2-----3-------|---------------|
|-0---0-2---2---5-|---7-----------|-0---0-2---2---5-|---7-----------|
|-------------3---|-5---5-5-7--3--|-------------3---|-5---5-5-7--3--|


 Chorus
  E E E E Q  E E   E E Q  H      E E E E Q  E E   E E Q  H
|----------------|-------------|----------------|-------------|
|----------------|-------------|----------------|-------------|
|----------------|--------3----|----------------|--------1----|
|-0-----0----0---|---0---------|-0-----0----0---|---0---------|


  E E E E Q  E E   E E Q  H      E E E E Q  E E   E E Q  E E Q
|----------------|-------------|----------------|---------------|
|----------------|-------------|----------------|---------------|
|----------------|--------3----|----------------|---------------|
|-0-----0----0---|---0---------|-0-----0----0---|---0----0------|


 Outro
 2/4         4/4
                                        |-3-|
  E E E E     Q.    Q.    Q      E Q.   Q Q Q
|---------||-------------------|---------------||
|---------||o------------------|--------------o||
|---------||o------------------|--------------o||
|-0-0-0-0-||--6b8r==5b7r==4b6--|-x-3----0-0-0--||


  Q.    Q.    Q      E Q.   H      Q.    Q.    Q      E Q.   E E E E
|------------------|-------------|------------------|----------------|
|------------------|-------------|------------------|----------------|
|------------------|---0---------|------------------|---0------------|
|-6b8r==5b7r==4b6--|-x-----------|-6b8r==5b7r==4b6--|-x------0-0-0-0-|


                            |-3-|
  Q.    Q.    Q      E Q.   Q Q Q   Q.    Q.    Q      E Q.   E E E E
|------------------|--------------|------------------|-----------------|
|------------------|--------------|------------------|-----------------|
|------------------|---0----------|------------------|---0-------------|
|-6b8r==5b7r==4b6--|-x------0-0-0-|-6b8r==5b7r==4b6--|-x------0-0-0-0--|


  Q.    Q.    Q      E Q.   H      Q.    Q.    Q      E Q.   E E E E
|------------------|-------------|------------------|----------------|
|------------------|-------------|------------------|----------------|
|------------------|---0---------|------------------|---0------------|
|-6b8r==5b7r==4b6--|-x-----------|-6b8r==5b7r==4b6--|-x------0-0-0-0-|


                            |-3-|
  Q.    Q.    Q      E Q.   Q Q Q   Q.    Q.    Q      E Q.   E E E E
|------------------|--------------|------------------|-----------------|
|------------------|--------------|------------------|-----------------|
|------------------|---0----------|------------------|---0-------------|
|-6b8r==5b7r==4b6--|-x------0-0-0-|-6b8r==5b7r==4b6--|-x------0-0-0-0--|


  Q.    Q.    Q      E Q.   H      W          +W
|------------------|-------------|----------|--------*|
|------------------|-------------|----------|--------*|
|------------------|---0---------|----------|--------*|
|-6b8r==5b7r==4b6--|-x-----------|-0--------|-(0)----*|





Comments


Popular Pantera tabs & chords
Drag The Water 1 Bass Tabs
Hellbound 1 Bass Tabs
Im Broken 3 Bass Tabs
Regular People Bass Tabs
Underground In America 2 Bass Tabs
25 Years 3 Tabs
Domination 2 Tabs
Hard Ride Tabs
Suicide Note Pt. 1 1 Tabs
Walk 3 Tabs


Song lyrics



↑ Back to top | Tablatures and chords are parodies/interpretations of the original songs. You may use it for private study, scholarship, research or language learning purposes only
© 2014 AZChords.com Contact us | Privacy policy | DMCA | Add/correct tabs | Request tabs | Top 50 tabs