» » »

This Love Easier To Read Bass tabs (ver.1)

Artists:  A B C D E F G H I J K L M N O P Q R S T U V W X Y Z # 

This Love Easier To Read Bass tabs (ver.1)

Pantera
Rating:
0/5 (0 votes)
Tabs too difficult? Try these video lessons and learn fast.
                Pantera
This Love
Tune to Eb (Eb,Ab,Db,Gb)
102 bpm
intro
                        2x
||------------|----------||---------|--------|---------|--------|---------|
||-o----------|--------o-||---------|--------|---------|--------|---------|
||-o----------|--------o-||-2--3----|-2--3---|---------|--------|-4--3--3-|
||----2--3--3-|-2--3-----||-------2-|--------|-2--3--0-|-2--3---|---------|
      q. h  e   q. e+h      q. h  e   q. e+h   q. h  e   q. e+h   q. h  e

|-------------|-------------|--------|-----||
|---------5---|---------5---|--------|-----||
|-4-0-4-3---3-|-4-0-4-3---3-|--------|-----||
|-------------|-------------|-4--5---|-(5)-||
  e e e q q e   e e e q q e   q. e+h +  w


 verse 1
|---------|----------|---------|----------|---------|-----------|---------|
|---------|----------|---------|----------|---------|-----------|---------|
|---------|------2---|---------|------2---|-2--3----|-2---2-3---|---------|
|-2--3--0-|-2--3---3-|-2--3--0-|-2--3---3-|-------2-|---2-------|-2--3--0-|
  q. h  e   q. q q e   q. h  e   q. q q e   q. h  e   e e e e+h   q. h  e

|------------|---------|-------------|-------------|--------|---------|
|------------|---------|---------5---|---------5---|--------|---------|
|---2-4------|-4--3--3-|-4-0-4-3---3-|-4-0-4-3---3-|--------|-4--3--3-|
|-2-----3--3-|---------|-------------|-------------|-4--5---|---------|
  e e e h  e   q. h  e   e e e q q e   e e e q q e   q. e+h   q. h  e

                                        2/4
|-------------|-------------|-----------|-----||
|---------5---|---------5---|-----------|-----||
|-4-0-4-3---3-|-4-0-4-3---3-|-----------|-----||
|-------------|-------------|-4-4-4-5---|-(5)-||
  e e e q q e   e e e q q e   e e e e+h +  w

4/4                          2x  chorus                                4x
||-----------|----------------|||-------------------|--------------------||
||-o---------|--------------o-|||-o-----------------|------------------o-||
||-o---------|-----4---2----o-|||-o-----------------|---------3--2-----o-||
||---2--3--0-|-2-5---3---3----|||---0-2-----0-2-----|-0-2-----------3----||
     q. h  e   e e e q q e          s s E Q s s E Q   s s E Q e. e. e

|---------|---------|---------|------------||
|---------|---------|---------|------------||
|---------|---------|---------|-----4------||
|-2--3--3-|-2--3--3-|-2--3--3-|-2-5---3--0-||
  q. h  e   q. h  e   q. h  e   e e e h  e

 verse 2
|---------|-------------|---------|-------------|---------|-----------|
|---------|-------------|---------|-------------|---------|---4-------|
|---------|-----4---2---|---------|-----4---2---|-2--3----|-2---2-3---|
|-2--3--0-|-2-5---3---3-|-2--3--0-|-2-5---3---3-|-------2-|-----------|
  q. h  e   e e e q q e   q. h  e   e e e q q e   q. h  e   e e e e+h

|---------|-------------|---------|-------------|-------------|--------|
|---------|-------------|---------|---------5---|---------5---|--------|
|---------|-----4---2---|-4--3--3-|-4-0-4-3---3-|-4-0-4-3---3-|--------|
|-2--3--0-|-2-5---3---3-|---------|-------------|-------------|-4--5---|
  q. h  e   e e e q q e   q. h  e   e e e q q e   e e e q q e   q. e+h

                                               2/4
|-----------|-----------------|-------------|--------|-----||
|-----------|---------5-------|---------5---|--------|-----||
|-4--3--3---|-4-0-4-3---3-----|-4-0-4-3---3-|--------|-----||
|-----------|-----------------|-------------|-4--5---|-(5)-||
  q. h  e   e e e q q e   e e e q q e   q. e+h +  w

4/4                          2x  chorus                                4x
||------------|----------------|||-------------------|--------------------||
||-o----------|--------------o-|||-o-----------------|------------------o-||
||-o----------|-----4---2----o-|||-o-----------------|---------3--2-----o-||
||----2--3--0-|-2-5---3---3----|||---0-2-----0-2-----|-0-2-----------3----||
     q. h  e   e e e q q e          s s E Q s s E Q   s s E Q e. e. e

||-----------------------------------|---------------------------|
||-o-------------4-------------------|-------------4-------------|
||-o-------4-------4-----------------|-------4-------4-----------|
||---0-2-2---2-2-----5-2-3-4-5-2-4-5-|-0-2-2---2-2-----5-2-3-4-3-|
     s s s s s s s s s s s s s s s s   s s s s s s s s s s s s q

                                                                2x  6/4
|---------------------------------|-------------------------------||----|
|-------------4-------------------|-------------4---------------o-||----|
|-------4-------4-----------------|-------4-------4-------------o-||----|
|-0-2-2---2-2-----5-2-3-4-5-2-4-5-|-0-2-2---2-2-----1-2-3-4-5-6---||-7--|
 s s s s s s s s s s s s s s s s   s s s s s s s s e e e e e e      w. +

                                                    { 3 } { 3 }
       64 bpm
3/4   4/4                                  |1,2,3.
|-----||-----------------------------------|------------------------------||
|-----||-o---------------------------------|----------------------------o-||
|-----||-o---------------------------------|----------------------------o-||
|-(7)-||---1-3---1-3---1-3---1-3---1-4---1-|-3---1-3---1-3---1-4---1-1----||
+  h.      s s S s s S s s S s s S s s S s   s S s s S s s S s s S s q

                                   102 bpm
|4.                         3/4     4/4
|---------------------------|------||---|---|---|---|-----------|----------|
|---------------------------|------||---|---|---|---|-----------|----------|
|---------------------------|------||---|---|---|---|-----------|----------|
|-3---1-3---1-3---1-4---1-1-|-(1)--||---|---|---|---|-2-2-3-0-3-|-2--3-0-3-|
  s S s s S s s S s s S s q +  h.     W   W   W   W   q e q q e   q. q q e

|----------|----------|---------|--------------------|-----------|
|----------|----------|---------|---4-------10-10----|-----------|
|----------|----------|-2-2-3---|-2---2-3/9-------9\-|-------2---|
|-2--3-0-3-|-2--3-0-3-|-------2-|--------------------|-2-2-3---3-|
  q. q q e   q. q q e   e q h e   e e e e+e e  e  e    q e q q e

|-----------|---------|-----------|-------14----|------12-|
|-----------|---------|-----------|-12-11----11-|-10-9----|
|-------2---|-5--4--4-|-3--2--/14-|-------------|---------|
|-2-2-3---3-|---------|-----------|-------------|---------|
  q e q q e   q. h  e   q. h   e    q. q  q  e    q. q q.

4/4                          2x  chorus                                4x
||-----------|----------------|||-------------------|--------------------||
||-o---------|--------------o-|||-o-----------------|------------------o-||
||-o---------|-----4---2----o-|||-o-----------------|---------3--2-----o-||
||---2--3--0-|-2-5---3---3----|||---0-2-----0-2-----|-0-2-----------3----||
     q. h  e   e e e q q e          s s E Q s s E Q   s s E Q e. e. e

                                                                   4x
||-----------------------------------|------------------------------||
||-o---------------------------------|----------------------------o-||
||-o---------------------------------|----------------------------o-||
||---1-3---1-3---1-3---1-3---1-4---1-|-3---1-3---1-3---1-4---1-1----||
     s s S s s S s s S s s S s s S s   s S s s S s s S s s S s q

|-----------|----------||
|-----------|----------||
|-2---------|----------||
|----0----1-|-(1)--3---||
  q. e+q. e +  q.  e+h

  52 bpm                                                       5x and fade
||-----------------------------------|------------------------------||
||-o---------------------------------|----------------------------o-||
||-o---------------------------------|----------------------------o-||
||---1-3---1-3---1-3---1-3---1-4---1-|-3---1-3---1-3---1-4---1-1----||
     s s S s s S s s S s s S s s S s   s S s s S s s S s s S s 

This is that other guys tab, but its easier to read this way....will
            
Tabs too difficult? Try these video lessons and learn fast.


comments powered by Disqus
↑ Back to top | Tablatures and chords are parodies/interpretations of the original songs. You may use it for private study, scholarship, research or language learning purposes only