>
 >
The Sleep 2

The Sleep 2 Guitar Tabs

Pantera - The Sleep 2 chords, tabs, tablatures, lyrics

Guitar lessons | Add/correct | Request | Top 50 tabs Artists:  A B C D E F G H I J K L M N O P Q R S T U V W X Y Z 0-9

The Sleep 2 Guitar Tabs – Pantera

CD, Sheet music, Poster

Do you like The Sleep 2? Share with your friends now
TabsTabs v2Tabs v3

   Acoustic Intro (Also before solo)
1||-----0-------0----|-----0------------||-----0-------0----|-----0------4----7-||
2||----3-3-----3-3---|----3-3-----4--4--||----4-4-----4-4---|----4-4----3----6--||
3||---5---5---5---5--|---2---2---2-2--2-||---5---5---7---7--|---5---5--4----7---||
4||--7-----7-7-----7-|--3-----3-3---3---||--7-----7-5-------|--7-----73---/6----||
5||-0-------0--------|-0-------0--------||-0-------0--------|-0-----------------||
6||------------------|------------------||------------------|-------------------||

   Last ending                            Main Riff 
1||------10-------13-||-----------------||-----------------|-----------------|
2||-----9-------12---||-----------------||-----------------|-----------------|
3||---10------13-----||-2w\-------------||-----------------|-----------------|
4||-/9-----/12-------||-2w\-------------||-1/2-1/2---22211-|-1/2-1-----------|
5||------------------||-0w\-------2-0-2-||-2/3-2/3---33322-|-2/3-2-0---00020-|
6||------------------||-----------0-2-3-||-----------------|-------2---22232-|

                                        Ending before chorus
1||-----------------|-----------------||------------------||
2||-----------------|-----------------||------------------||
3||-----------------|-----------------||------------------||
4||-1/2-1/2---22211-|-1/2-1-----------||-1/2-1------------||
5||-2/3-2/3---33322-|-2/3-2-0---------||-2/3-2-0---222-20-||
6||-----------------|-------2---------||-------2---333-32-||

   Chorus                                   Alternate endings
1||--------------------|------------------||------------------||----------------||
2||--------------------|------------------||------------------||----------------||
3||--------------------|------------------||------------------||----------------||
4||------------------2-|------------------||-----2---2---2----||----------------||
5||-2---4---5--5/9\5-0-|------------------||---2-0-2-0-2-0----||----------2-0-2-||
6||-000022223333/7\3---|---------------32-||----3---3---3--32-||----------0-2-3-||

   Acoustic in solo
-----0-------0----|-----0-------0-0--||----4---7----10------13-|-----10------13---7---4-
---3-3-----3-3---|----3-3-----3---3-||---3---6----9------12---|----9------12----6---3-------5---5---5---5--|---5---5---5------||--4---7---10-----13-----|--10-----13-----7---4---
4--7-----7-6-----6-|--5-----5-4-------||-3---6---9-----12-------|-9-----12------6---3----
5-0-------0--------|-0-------0--------||------------------------|------------------------
6------------------|------------------||------------------------|------------------------   Distortion                                  Acoustic backing next
1||-----||-----------------|-----------------||-----------------|-----------------||
2||-----||-----------------|-----------------||-----------------|-----------------||
3||-----||------20---------|-----------------||-----------------|-----------------||
4||-2---||--------3-3-3----|-----------------||-----------------|-------3-----4---||
5||-0---||-0-00------------|-5-55------------||-2--2--2---------|-2--2--1-----2---||
6||-----||-----------------|--------3-3-3----||-0--0--0---------|-0--0------0-----||

   Acoustic             Distortion                           End solo
1||---------0---------||-----------------|-----------------||----------|-------------||
2||-----0-------0-----||-----------------|-----------------||----------|-------------||
3||----3--3---3---3---||------20---------|-----------------||----------|-------------||
4||---5----5---5----5-||--------3-3-3----|-----------------||----------|-------------||
5||-------------------||-00000-----------|-55555555--------||-2w\------|-------2-0-2-||
6||-0-----------------||-----------------|----------3-3----||-0w\------|-------0-2-3-||

   Alternate riffs
1||-----------------|-------------------||--------------------|------------------||
2||-----------------|-------------------||--------------------|------------------||
3||-----------------|-----------7-------||--------------------|----------7-------||
4||-1/2-1/2---22211-|-1/2-1/2---7---9---||------------------2-|----------7---9---||
5||-2/3-2/3---33322-|-2/3-2/3---5---6---||-2---4---5--5/9\5-0-|----------5---6---||
6||-----------------|-------------------||-000022223333/7\3---|------------------||


SOLO
====
                  4x                   1            101  
1||-----------------|-8---7---5------------------------------------------------|
2||-5---4---5---6---|---------------------17-----------17----------------------|
3||-----------------|----------------16^----16~---16^----16h17-16p1416-16-14~--|
4||-----------------|----------------------------------------------------------|
5||-----------------|----------------------------------------------------------|
6||-----------------|----------------------------------------------------------|

      101             2   1   1          2
1||--------------17-17^-19^-19^--17--17--------20-19-17-19-17h19p17\1517-15-13-|
2||------17------------------------20--20^-~-----------------------------------|
3||-16^----16~-----------------------------------------------------------------|
4||----------------------------------------------------------------------------|
5||-------------------------------------------/--------------------------------|
6||----------------------------------------------------------------------------|


1||-12-13-12h13p12\10-12------------------------------------------------------|
2||----------------------15\13-13-12h13p12\10-10h12p10\8-8h10p8\6-6-5-5h6p5\3-|
3||---------------------------------------------------------------------------|
4||---------------------------------------------------------------------------|
5||---------------------------------------------------------------------------|
6||---------------------------------------------------------------------------|

                              2   ||   2                          2         1 0
1||-------------------------<5w~>-||------17-17-17~--17-19-20~--20^--19p1719^---|
2||-3h5p3\1-1h3p1p0-0h1p0---------||-20^----------------------------------------|
3||----------------------2--------||--------------------------------------------|
4||-------------------------------||--------------------------------------------|
5||-------------------------------||--------------------------------------------|
6||-------------------------------||--------------------------------------------|

      2     1 0   1       4         |1.       2 0    
1||-22^-----------------------17-17-|-17~----------8p7h8p7h8p7h8-10p8h10p8h10p8h10-|
2||-------17^-----------------------|-------18^--~---------------------------------|
3||-------------16^--16-------14-14-|----------------------------------------------|
4||---------------------15^---------|----------------------------------------------|
5||---------------------------------|----------------------------------------------|
6||---------------------------------|----------------------------------------------|

                                                1         2    1              2
1||-10h12p10h12p10h12p10-12h13p12h13p12h13p12------------------------------------|
2||-------------------------------------------------------------------------17^--|
3||-------------------------------------------16^-p1416-14^--16^-p1416-16~-------|
4||------------------------------------------------------------------------------|
5||------------------------------------------------------------------------------|
6||------------------------------------------------------------------------------|

                                           -1 0    |2. -1   -1       2   2  2  2
1||---------------------------------------17~w----||-17\w/17\w/17~---------------|
2||-17-15p1315p13p12h13h14h15p12h1312-------------||-----------------------------|
3||-----------------------------------1412--------||-14\w/14\w------7^--7^-7^-7^-|
4||-----------------------------------------------||-----------------------------|
5||-----------------------------------------------||-----------------------------|
6||-----------------------------------------------||-----------------------------|

                                      5
1||------------------108--87-7-----------------------------------------------------|
2||---------------------10--8-10~----------------------------------------------13--|
3||-5~---75-54-4--------------------<5w>---<5>~-------------------1212--1112h14----|
4||--------7--5-7~-----------------------------------1012101012/14----14-----------|
5||--------------------------------------------------------------------------------|
6||--------------------------------------------------------------------------------|

                   2                                             1 010         2
1||-----10/121215---1213121312--12---------17151215151217------19^-----17--17-----|
2||-1012---------15^----------16--16151315---------------161513----------20--20^--|
3||-------------------------------------------------------------------------------|
4||-------------------------------------------------------------------------------|
5||-------------------------------------------------------------------------------|
6||-------------------------------------------------------------------------------|

                                                                2                2
1||-17202217201720222022201720171717----1720172017171717-----------172017171720----|
2||---------------------------------2017----------------20201720^--------------20^-|
3||--------------------------------------------------------------------------------|
4||--------------------------------------------------------------------------------|
5||--------------------------------------------------------------------------------|
6||--------------------------------------------------------------------------------|

         2                                                   0 -2 0 -2   3 0
1||-17-----17---20--------20--------20--------20--------20--<5w>-------<5w>-~-||
2||----20^----20--------20--------20--------20--------20----------------------||
3||---------------19p17-----19p17-----19p17-----19p17-----19------------------||
4||---------------------------------------------------------------------------||
5||---------------------------------------------------------------------------||
6||---------------------------------------------------------------------------||

Backing Part at end

1||-15--14--12---------|-----17-----------|-15--14--12---------|------------------|
2||-------------15-12/-|-14---------------|-------------15-12/-|-14---------------|
3||--------------------|------------------|--------------------|-----14-----------|
4||--------------------|------------------|--------------------|------------------|
5||--------------------|------------------|--------------------|------------------|
6||--------------------|------------------|--------------------|------------------|

                                  2                          2
1||-15--14--12---------|-----17-19^-------|-15--14--12-----19^-|---17-------------||
2||-------------15-12/-|-14---------------|-------------15-----|------------------||
3||--------------------|------------------|--------------------|------------------||
4||--------------------|------------------|--------------------|------------------||
5||--------------------|------------------|--------------------|------------------||
6||--------------------|------------------|--------------------|------------------||





Comments


Popular Pantera tabs & chords
Fucking Hostile Bass Tabs
I Can't Hide Bass Tabs
Im Broken Bass Tabs
We'll Grind That Axe For A Long Time Bass Tabs
25 Years Tabs
Cemetery Gates Intro Tabs
Hot And Heavy Tabs
Rise 1 Tabs
Slaughtered Tabs
Walk 7 Tabs


Song lyrics



↑ Back to top | Tablatures and chords are parodies/interpretations of the original songs. You may use it for private study, scholarship, research or language learning purposes only
© 2014 AZChords.com Contact us | Privacy policy | DMCA | Add/correct tabs | Request tabs | Top 50 tabs