» » »

Shattered Tabs (ver.2)

Artists:  A B C D E F G H I J K L M N O P Q R S T U V W X Y Z # 

Shattered Tabs (ver.2)

Pantera
Rating:
0/5 (0 votes)

Hard to play? Try these video lessons and learn fast.
                -------9--------------9--------------9---------------9------------------------
-----------12p9----------12p9------------12p9-----------12p9--12b-------------
--11b-----------11b------------11b-------------11b----------------------------

-9-------------9-------------9--------------12--9--11--9----9--12--9--11--9---
----12p9--12b-----12p9--12b-----12p9--12b----------------11-------------------

----9---12-11-9----9--12--14-12-9---------------------------------------------------
-11-------------12----------------14-12-14-12b14r12-9-------------------------------
------------------------------------------------------12-11-12--11-9-11-11p9-9------

---------------------------------------------------13b14r13b16~~--------------
-------11----13-13-11-12-12-11-13-13-11-12-12-11------------------------------
---/13----13------------------------------------------------------------------

--------------------------------------------------------------11-14-11-13-----------
-----------------------------------------------11-13-14-13-14-------------14-13-11--
---------------------------------11h13p11h13p11-------------------------------------
-------------------11h13p11h13p11---------------------------------------------------
-11h13p11h13p11h13------------------------------------------------------------------

--14-13-11------18-16-14------------13-14-13v------
-----------14-------------18-16-19-----------------
---------------------------------------------------
---------------------------------------------------
---------------------------------------------------
---------------------------------------------------

--------------------------------------------
-9b------------------------------12-----12v-
-9b------------------9-----9/8-------8------
----11-9-11----9/11----11-------------------
--------------------------------------------
--------------------------------------------

--9--12-12-9-11------14-14-11-12------16-16-12-14-----
-----------------/12--------------/14--------------14-
------------------------------------------------------
------------------------------------------------------
------------------------------------------------------
------------------------------------------------------
*dive
------------------------------------------
-9v---------------------------------------
-9v---------------------------------------
------------------------------------------
------------------------------------------
------------------------------------------

(Outro solo)

---------14h16p14----14----------17p16p14h16p14----14-------------------------
----17b-----------17----17p16p14----------------17----17p16p14h16p14----------


----14*15-13*14-12*13-13*14------14*15-----14----------17p16p14h16p14---------
-17--------------------------17---------17----17p16p14------------------------
        the * means trill

-----------------16-16--------------------------------------------------------
----14-----------------17p14--------------------------------------------------
-17----17p16p14---------------------------------------------------------------
                              reapeat this a few times using fast picking
            
Hard to play? Try these video lessons and learn fast. | Correct




comments powered by Disqus
↑ Back to top | Tablatures and chords are parodies/interpretations of the original songs. You may use it for private study, scholarship, research or language learning purposes only