>
 >
Rise 3

Rise 3 Guitar Tabs

Pantera - Rise 3 chords, tabs, tablatures, lyrics

Guitar lessons | Add/correct | Request | Top 50 tabs Artists:  A B C D E F G H I J K L M N O P Q R S T U V W X Y Z 0-9

Rise 3 Guitar Tabs – Pantera

CD, Sheet music, Poster

Do you like Rise 3? Share with your friends now
Bass TabsBass Tabs v2TabsTabs v2Tabs v3Tabs v4
        Title : Rise
        Artist : Pantera
         Album : Vulgar display of power
============================================================================

* There are a lot of fills in this song, but I could not be bothered putting the
  layout of it. All of the riffs should be here except the solo. Enjoy.

Tune down 1/2 step (Eb,Ab,Db,Gb,Bb,Eb)

   Intro and pre-chorus 2
1||--------------------||------------------||------------------||------------|
2||--------------------||------------------||------------------||------------|
3||--------------------||------------------||------------------||------------|
4||-----10-------10----||------------------||-----7-------7----||------------|
5||------8--------8----||-----5-------5----||-----5-------5----||-----9----9-|
6||-0000---000000---00-||-33334-3333334-33-||-5555--555555--55-||-77778-7778-|

                                    Pre-chorus 1
1||-----------------|-------------||------------------|-----|-----|----------|
2||-----------------|-------------||------------------|-----|-----|----------|
3||-----------------|-------------||------------------|--%--|--%--|----------|
4||-----------------|-------------||------------------|-----|-----|----------|
5||-9---9---9---9---|-9---x\------||-5---x-x-x-3-x-3/-|-----|-----|-5------6-|
6||-7---8---7---8---|-7---x\------||-3---x-x-x-1-x-1/-|-----|-----|-3------4-|

   Verse riff 1                         Verse riff 2
1||-----------------|-----------------||----------------|----------------||
2||-----------------|-----------------||----------------|----------------||
3||-----------------|-----------------||----------------|----------------||
4||-----------------|-----------------||----------------|----------------||
5||-2-2-2-----2---2-|-2-------2-2-2---||----2-2-5-----2-|--2-5---2-2-5---||
6||-3-3-0-----3---3-|-0-------3-3-0---||----0-0-3-----0-|--0-3---0-0-3---||

   Fill 1             Fill 2            Fill 3            Chorus
1||-----------------||----------------||----------------||-------------------|
2||-----------------||----------------||----------------||-------------------|
3||-----------------||----------------||----------------||-----------9~------|
4||---------3-------||---3-----4------||---------3------||-----------9-------|
5||---------1-3-----||---1-----2-3----||-2-2-2-2-1-3----||-3-2---2---7-------|
6||-----------1-----||-0-----0---1----||-0-0-0-0---1----||-1-0---0-----------|

   Fill 4                               After solo
1||-----------------|-----------------||-----------------|------------------|
2||-----------------|-----------------||-----------------|------------------|
3||-----------------|-----------------||-----------------|------------------|
4||---3-----4-----3-|-----3---4-------||-----------------|------------------|
5||---1-----2-----1-|-----1---2-3-----||-2---------------|------------------|
6||-0-----0-----0---|---0-------1-----||-0-0-0-0-0-0-0-0-|-0000000000000000-|


1||----------------------|----------------------||
2||----------------------|----------------------||
3||-12---12---12-13---12-|---12---12-12-12-13---||
4||-12---12---12-12---12-|---12---12-12-12-12---||
5||-10---10---10-11---10-|---10---10-10-10-11---||
6||----------------------|----------------------||





Comments


Popular Pantera tabs & chords
Cowboys From Hell 3 Bass Tabs
Im Broken 4 Bass Tabs
The Art Of Shredding Bass Tabs
Throes Of Rejection Bass Tabs
Becoming 2 Tabs
Cemetory Gates Tabs
Clash With Reality Tabs
Cowboy's From Hell 1 Tabs
Hellbound Tabs
Revolution Is My Name Tabs


Song lyrics



↑ Back to top | Tablatures and chords are parodies/interpretations of the original songs. You may use it for private study, scholarship, research or language learning purposes only
© 2014 AZChords.com Contact us | Privacy policy | DMCA | Add/correct tabs | Request tabs | Top 50 tabs