» » »

Pantera, No Good (Attack The Radical) Tabs (ver.1)

Artists:  A B C D E F G H I J K L M N O P Q R S T U V W X Y Z # 

No Good (Attack The Radical) Tabs (ver.1)

Pantera Tabs
 Rating:
4/5 (4 votes)
No Good (Attack The Radical) lessons Tabs too difficult? Try these video lessons and learn fast
1
                Pantera
No Good (Attack the Radical)
Vulgar Display of Power
Drop D Tuning

|-----------------------------------------------------------------|   
|-----------------------------------------------------------------|
|-----------------------------------------------------------------|
|---------------------------3--------------------------3----------|
|----------------0--3--5------------------0--3--5-----------------|
|-----0--3--5-----------------0--3--5----------------------12-----|
                           
    2nd Half of Intro (Play Twice)

|----------------------------------------------------------------------------------|
|----------------------------------------------------------------------------------|
|----------------------------------------------------------------------------------|
|----------------------------------------------------------------------------------|
|----------------------------------3h5--3h5----------------------------------------|
|--3-4-5-3b-0----0-3h5-3b-0------------------------3-4-5-3b-0-----0-3h5-3b-0-5/7-3-|


|----------------------------------------------------------------------------------|
|----------------------------------------------------------------------------------|
|----------------------------------------------------------------------------------|
|---------------------------------------3------------------------------------------|
|---------------------------------3--5---------------------------------------------|
|--3-4-5-3b-0------0-3-0-3-5------------------3-4-5-3b-0-----0-3h5-3b-0-5/7-3----0-|
 

|-------------------------------|
|-------------------------------|
|-------------------------------|
|-------------------------------|
|-------------------------------|
|-------------------------------|
  Rest for two Bars

In the states there's a problem with race because of ignorant past burned fires


|----------------------------------------------------------------------------------|
|----------------------------------------------------------------------------------|
|----------------------------------------------------------------------------------|
|----------------------------------------------------------------------------------|
|------5/7---3----1-1--1-1--1-1--1-1----44--44----1-1--1-1--1-1--1-1---5--6--------|
|------5/7---3----1-1--1-1--1-1--1-1----44--44----1-1--1-1--1-1--1-1---5--6--------|

                                                                            3
Times…No chance, not for a minute not for a second I won't be defensive,
 I'm straight out, in my opinion, You'd better listen to a man who knows what he's saying.
 I've seen your side, you run and hide, for mere fact that you feel

|-------------------------------------------------------------------------|
|-------------------------------------------------------------------------|
|-------------------------------------------------------------------------|
|-------------------------------------------------------------------------|
|-----1-1--1-1--1-1--1-1----44--44----1-1--1-1--1-1--1-1-----5/8--3-------|
|-----1-1--1-1--1-1--1-1----44--44----1-1--1-1--1-1--1-1-----5/8--3-------|

           inferior, be superior, and know your interior.
Pre-Chorus

|-----------------------------------------------------------------------------------|
|-----------------------------------------------------------------------------------|
|-----------------------------------------------------------------------------------|
|-----------------------------------------------------------------------------------|
|---5/7--77---5/7--77---5/7--77--10--5-----------5/7--77---5/7--77---5/7--77---3--5-|
|---5/7--77---5/7--77---5/7--77--10--5-----------5/7--77---5/7--77---5/7--77---3--5-|
  
   Race, pride, prejudice....     Blackman, whman, no stand

|----------------------------------------------------------------------------------|
|----------------------------------------------------------------------------------|
|----------------------------------------------------------------------------------|
|----------------------------------------------------------------------------------|
|---5/7--77---5/7--77---5/7--77--10--5----------5/7--77---5/7--77---5/7--77--10--11|
|---5/7--77---5/7--77---5/7--77--10--5----------5/7--77---5/7--77---5/7--77--10--11|

  Live in the past, we make it last, a hated mass. No solution, mind polution, for revolution.
(Play 2nd half of intro for chorus)
So low , behold my eyes,
This land of fools will rise.
No good, for no one,
No good, for no one.

You blame the oppression and play the role of criminals,
To rape and burn, progress is minimal.
White hoods and militants, you know it's such a pity,
Living, breathing, violence in your city.

If one man, had one home, in one world,
He'd live alone without variety, full of anxiety, 
No one to point at, question or even talk to in his private grave
No matter what color, he wouldn't be saved from hell, he dwells,
A closed mind playing the part of prison cells.

Pre-chorus
Chorus 

1st half of intro

|------------------------------------------------------------------------|
|------------------------------------------------------------------------|
|------------------------------------------------------------------------|
|------------------------------------------------------------------------|
|----011111111111-3/4---011111111111-3/4---011111111111-3/4---1/1-1/1----|
|----011111111111-3/4---011111111111-3/4---011111111111-3/4---1/1-1/1----|
      ( all the ones are 1st fret)
                                                    (twice)
            
Submit corrections

comments powered by Disqus
↑ Back to top | Pantera Tabs for No Good (Attack The Radical). Lyrics for acoustic guitar and electric guitar. 1 Tablatures and chords are parodies/interpretations of the original songs. You may use it for private study, scholarship, research or language learning purposes only