» » »

Mouth For War Tabs (ver.5)

Artists:  A B C D E F G H I J K L M N O P Q R S T U V W X Y Z # 

Mouth For War Tabs (ver.5)

Pantera
Rating:
0/5 (0 votes)

Hard to play? Try these video lessons and learn fast.
                ----------------------------------------------------------------------------
                          Mouth for war-Pantera
----------------------------------------------------------------------------


Tuning: Standard
Every other tab ive seen has the same intro on the a but i dont reckon you
get a heavy enough sound          x3    4th time
e|----------------------------------]---------------------------------------|
B|----------------------------------]---------------------------------------|
G|----------------------------------]---------------------------------------|
D|----------9-----------9---9---9---]----------9-----------9---99-----------|
A|--789-9-9-9-999-789-9-9-9-9-9-9---]--789-9-9-9-999-789-9-9-9-99-----------|
E|--567-7-7-7-777-567-7-7-7-7-7-7---]--567-7-7-7-777-567-7-7-7-77-----------|
pm  --- - -   --- --- -   -   -        --- - -   --- --- -

e|-----------------------------------------------------]2nd-time------------|
B|-----------------------------------------------------]----444-------------|
G|-----------------------------------------------------]----444-------------|
D|-----------------------------------------------------]----***-------------|
A|--22-5/9---5---5/9---5/9---5-----5/9---5/9---5/9---5-]--9\----------------|
E|--00-3/7-0-3-0-3/7-0-3/7-0-3---0-3/7-0-3/7-0-3/7-0-3-]--7\----------------|

Verse                                                2nd time before singing
e|-------------------------------------------------------]------------------|
B|---------------------------------------------------444-]-44---------------|
G|---------------------------------------------------444-]-44---------------|
D|---------------------------------------------------***-]-**---------------|
A|--2--8---910--78---5---57---45---8---910--78---5-------]-----2--2---------|
E|--00-6-0-78-0-56-0-3-0-35-0-23-0-6-0-78-0-56-0-3-0-----]-----0--0---------|
then above repeats 4 times
then intro and verse
then solo
solo rhythm
e|------------------------------]--------]-----------------------------------|
B|------------------------------]--------]-----------------------------------|
G|------------------------------]--------]-----------------------------------|
D|-------4-----876-4-4-4-2--987-]--------]---^-^-----------------------------|
A|-4-666-2-6-6-654-2-2-2-0--765-]-765~~~-]-765-------------------------------|
E|-2-444---4-4-----------@------]--------]-----------------------------------|
pm   ---     -              -------------------------------------------------|
Alternate tails and a whammy dive on the a(@) one time and whammy squeal(^)
most likely 2 octaves


e|--------------------------------------------------------------------------|
B|--------------------------------------------------------------------------|
G|--------------------------------------------------------------------------|
D|--------------------------------------------------------------------------|
A|--6-6-4--6-6-4--6-6-4--6-6-4--66-6-4-66-6-4-66-6-4-66-6-4-----------------|
E|--4-4-2--4-4-2--4-4-2--4-4-2--44-4-2-44-4-2-44-4-2-44-4-2-----------------|

e|---------------------------------------------------------------------------|
B|---------------------------------------------------------------------------|
G|---------------------------------------------------------------------------|
D|---------------------------------------------------------------------------|
A|--4--------------5--4--------------4--4--------------5--4--------------4---|
E|--2-444444444444-7--2-444444444444-5--2-444444444444-7--2-444444444444-5---|
      pm----------      ------------      ------------      -----------------|

e|----------------------------------|
B|----------------------------------|Outro just jumps between these 2 riffs
G|----------------------------------|
D|----------------------------------|
A|--6-6-4-66-6-4--6-6-4-66-6-4------|
E|--4-4-2-44-4-2--4-4-2-44-4-2------|


************************************

| /   slide up
| \   slide down
| h   hammer-on
| p   pull-off
| ~   vibrato
| +   harmonic
| x   Mute note
| b   Bend
| pb  Pre-bend
| br  Bend release
| pbr Pre-bend release
| brb Bend release bend

************************************
            
Hard to play? Try these video lessons and learn fast. | Correct




comments powered by Disqus
↑ Back to top | Tablatures and chords are parodies/interpretations of the original songs. You may use it for private study, scholarship, research or language learning purposes only