» » »

Mouth For War Tabs (ver.1)

Artists:  A B C D E F G H I J K L M N O P Q R S T U V W X Y Z # 

Mouth For War Tabs (ver.1)

Pantera
Rating:
0/5 (0 votes)

Hard to play? Try these video lessons and learn fast.
                
intro

|--------------------------------------|
|--------------------------------------|
|--------------------------------------|
|----------4--------------4-4-4--------|
|--0-1-2-2-2-2-2-2--0-1-2-2-2-2--------|
|--------------------------------------|

riff 1

|--------------------------------------|
|--------------------------------------|
|--------------------------------------|
|--------------------------------------|
|--2--5/9---5---5/9---5/9---5--2-------|
|--0--3/7-0-3-0-3/7-0-3/7-0-3--0-------|
            
Hard to play? Try these video lessons and learn fast. | Correct




comments powered by Disqus
↑ Back to top | Tablatures and chords are parodies/interpretations of the original songs. You may use it for private study, scholarship, research or language learning purposes only