» » »

Living Through Me Tabs (ver.1)

Artists:  A B C D E F G H I J K L M N O P Q R S T U V W X Y Z # 

Living Through Me Tabs (ver.1)

Pantera
Rating:
0/5 (0 votes)

Tabs too difficult? Try these video lessons and learn fast.
                  For example, that harmonic part for Living
thru me that everybody is stumped on goes like this:

     a.h.   a.h   a.h  a.h  a.h   a.h
|---------------------------------------------------|
|---------------------------------------------------|
|---------------------------------------------------|
|----2p0---------------------5p0--1s2---------------|
|-----------1s2----5p0--1s2-------------------------|
|-0-------0-----0-----------------------------------|

this is repeated 4 times.  that last 1s2 on the second \
time thru are 7s8 and 8s7 on the fourth time.  
K.R.


                            PANTERA:
              *** Living Through Me (Hell's Wrath) ***


    This has got to be one of Pantera's grooviest songs EVER!
    Simple can be THE most lethal! 
      Forget this song if you can't alternate-pick properly since
    most of the parts really require it. The song itself should be
    pretty easy to play once you get the hang of it. And then it
    f**kin rocks!
      I think everything I got here is correct, down to the last note.
    What I didn't get was the Artificial Harmonics-part that is used  
    quite a bit in the song.It's f**kin beyond me because I can't 
    even hear the goddamn notes clear. The rest is all there.
      If somebody knows the A.H.-part, please send it to me!
          PLEASE SEND COMMENTS as this is my first attempt at tab
      since I'm just a beginner!

             Ville-Valtteri Santala
   
     
  Symbols:
 / =slide up   PM.... =normal palm-mute          ~~  =vibrato
 \ =slide down PM---- =alternate-pick palm-mute
 

   Tune down one whole step to D
   Strings from lo to hi: 
      D G C F A D


   intro/riff 1
 d-------------------------------------------------------------------------
 A-------------------------------------------------------------------------      
 F-------------------------------------------------------------------------
 C--------------------------------------------------------------------------
 G--3-3----3-3--3--3-3-------------------------------------------------------------
 D--1-1-1--1-1--1--1-1-11111111-------------------------------------------------------------
                       PM------

   riff 2
 d---------------------------------------------------------------------------
 A---------------------------------------------------------------------------
 F---------------------------------------------------------------------------
 C---------------------------------------------------------------------------
 G--3-3----3-3--3--3-3--------------------------------------------------------------
 D--1-1-1--1-1--1--1-1---/15-\-----------------------------------------------------------


   main riff
 d----------------------------------------------------------------------------
 A--------------------------------------------------------------------------
 F----------------------------------------------------------------------------
 C-----------------------------------------------------------------------------
 G--2-2----2-2--2--2-2---------------------------------------------------------
 D--0-0-0--0-0--0--0-0-11111111-------------------------------------------------------
                       PM------


  play main riff another 3 times


 d--------------------------------------------------------------------------
 A-------------------------------------------------------------------------
 F------------------------------------------------------------------------
 C--------------------------------------------------------------------------
 G-------------------------------------------------------------------------
 D-000000---/8\5/7---------------------------------------------------------------------
   PM----


   play main riff x4


  riff 3
 
 d-------------------------------------------------------------------------
 A---------------------------------------------------------------------------
 F--------------------------------------------------------------------------
 C-------------------------------------------------------------------------
 G--/9-99-888-/7-77-666-555-----------------------------------------------------------------
 D--/7-77-666-/5-55-444-333-----------------------------------------------------------------
       PM PM-    PM PM- PM-



   then the A.H. -part, of which I have no idea except
   that it starts with an E5 chord:

 G-2
 D-0


   play riff 2 x1

   play main riff x4


   
    riff 3
 d---------------------------------------------------------------------
 A-------------------------------------------------------------------------
 F-------------------------------------------------------------------------
 C------------------------------------------------------------------------
 G--2--22---2-22---2-22---2-22-------------------------------------------------------
 D--2--22---2-22---2-22---2-22---------------------------------------------------------



  play main riff x4

  play riff 3  x1

--------------------------
     THE A.H. -PART


--------------------------

  riff 4
     Playing the brackets is optional. It gives you a sharper sound.
 d-----------------------------------------------------------------------
 A-------------------------------------------------------------------------
 F-------------------(2)------------------------------------------------------------
 C-(9)---(7)---(5)----0----(4/5)------------------------------------------------------------------
 G--7-----5-----3-----0-----2/3--------------------------------------------------------------
 D--7-----5-----3-----------2/3--------------------------------------------------------


 
----------------
   A.H.
----------------


   play riff 4 x1


--------------  
  E5 A.H.
---------------

  play riff 4 x1

-----------------
 E5  A.H.
---------------

   play riff 4  x1


   riff 4B
 d--------------------------------------------------------------------------
 A-------------------------------------------------------------------------
 F--------------------------------------------------------------------------
 C------------------------------------------------------------------------
 G----------------0----------------------------------------------------------
 D--6~~--4~~--2------1/2------------------------------------------------------



   play riff 3 x1


 C-------------------------------------------------------------------------
 G--2---2---2--------------------------------------------------------------
 D--0---0---0--------------------------------------------------------------





   ***          The Great Southern Silence        ***





   RRRHHAAAAAAAAAAAAAAAHHHHHHHHHHH


 d----------------------------------------------------------------------------
 A----------------------------------------------------------------------------
 F----------------------------------------------------------------------------
 C----------------------------------------------------------------------------
 G------------------3---------------------5-------------------6----------------
 D-1111111111111111-1----3333333333333333-3--4444444444444444-4---------------
   PM--------------      PM--------------    PM--------------



 d-----------------------------------------------------------------------------
 A----------------------------------------------------------------------------
 F----------------------------------------------------------------------------
 C----------------------------------------------------------------------------
 G------------------8-8-8-8\--------------------------------------------------
 D-5555555555666666-6-6-6-6\-------------------------------------------------
   PM--------------


  play riff 1 x1

  play main riff x3

 d--------------------------------------------------------------------------
 A----------------------------------------------------------------------------
 F----------------------------------------------------------------------------
 C----------------------------------------------------------------------------
 G-2-2----2-2--2--2-2---------------------------------------------------------
 D-0-0-0--0-0--0--0-0---/12\\------------------------------------------------


 d----------------------------------------------------------------------------
 A---------------------------------------------------------------------------
 F---------------------------------------------------------------------------
 C---------------------------------------------------------------------------
 G--2--22---2--22----------------------------------------------------------
 D--2--22---2--22------------------------------------------------------------

         Rex is slidin here   really cool



   play main riff x2


   play riff 3  x1

  --------
    A.H.
  --------

   play riff 4 x1
         --------
 E5        A.H.
         --------
  play riff 4 x1
         --------
 E5        A.H.
         --------
  play riff 4 x1
         -------
 E5        A.H.
         -------
  play riff 4

  play riff 4B

  play riff 3

  G--2--
  D--0--


     The end.
            
Tabs too difficult? Try these video lessons and learn fast.




comments powered by Disqus
↑ Back to top | Tablatures and chords are parodies/interpretations of the original songs. You may use it for private study, scholarship, research or language learning purposes only