>
 >
Killers

Killers Guitar Tabs

Pantera - Killers chords, tabs, tablatures, lyrics

Guitar lessons | Add/correct | Request | Top 50 tabs Artists:  A B C D E F G H I J K L M N O P Q R S T U V W X Y Z 0-9

Killers Guitar Tabs – Pantera

CD, Sheet music, Poster

Do you like Killers? Share with your friends now
Tabs
Band- Pantera
Song- Killers

  Riff 1
E|-------------------------------------------------------------------|
B|-------------------------------------------------------------------|
G|-------------------------------------------------------------------|
D|-0-7-0-5-0-3-0---0---0---------------------------------------------|
A|---------------5---3-----------------------------------------------|
E|-------------------------------------------------------------------|
   Riff2
E|-------------------------------------------------------------------|
B|-------------------------------------------------------------------|
G|-------------------------------------------------------------------|
D|-0-7-0-5-0-3-0---0-------0-----------------------------------------|
A|---------------5---5-3-0-------------------------------------------|
E|-------------------------------------------------------------------|
   Riff 3
E|-------------------------------------------------------------------|
B|-------------------------------------------------------------------|
G|-------------------------------------------------------------------|
D|-------------------------------------------------------------------|
A|-3-5-5-5-5-5-5-5-5-5-5-5-5--3-5-5-5-5-5-5-5-5-5-5-5-5--------------|
E|-------------------------------------------------------------------|

E|-------------------------------------------------------------------|
B|-------------------------------------------------------------------|
G|-----------------------------7-7/9---------------------------------|
D|-----------------------------7-7/9---------------------------------|
A|-3-5-5-5-5-5-5-5-5-5-5-5-5-3-5-5/7---------------------------------|
E|-------------------------------------------------------------------|

   Riff 4
E|--------------------------------------------------------------|
B|--------------------------------------------------------------|
G|--------------------------------------------------------------|
D|-4-2-4-5--4-2-4-2--4-2-4-5--4--5-7----------------------------|
A|-4-2-4-5--4-2-4-2--4-2-4-5--4--5-7----------------------------|
E|-2-0-2-3--2-0-2-0--2-0-2-3--2--3-5----------------------------|

   Riff 5
E|-------------------------------------------------------------------|
B|-------------------------------------------------------------------|
G|-------------------------------------------------------------------|
D|-3-2-2-2-2-2-2-2-2-2-2-2-2-2-2-2-2-2-2-2-2-2-2-2-------------------|
A|-3-0-0-0-0-0-0-0-0-0-0-0-0-0-0-0-0-0-0-0-0-0-0-0-------------------|
E|-1-----------------------------------------------------------------|

   Riff 6
E|-------------------------------------------------------------------|
B|-------------------------------------------------------------------|
G|--------4-5--------------------------------------------------------|
D|-2-4----4-5--------------------------------------------------------|
A|-2-4----2-3--------------------------------------------------------|
E|-0-2---------------------------------------------------------------|

   Riff 7
E|-------------------------------------------------------------------|
B|-------------------------------------------------------------------|
G|-----------------------------------3-------------------------------|
D|-----------------------------------3-3-----------------------------|
A|-----------------------------------1-3-----------------------------|
E|-1-3-3-3-3-1-3-3-3-3-1-3-3-3-3-1-3---1-----------------------------|


E|-------------------------------------------------------------------|
B|-------------------------------------------------------------------|
G|-----------------------------------5-------------------------------|
D|-----------------------------------5-5-----------------------------|
A|-----------------------------------3-5-----------------------------|
E|-1-3-3-3-3-1-3-3-3-3-1-3-3-3-3-1-3---3-----------------------------|

   Riff 8
E|-------------------------------------------------------------------|
B|-------------------------------------------------------------------|
G|-------------------------------------------------------------------|
D|-------------------------------------------------------------------|
A|-------------------------------------------------------------------|
E|-1-3-3-3-3-1-3-3-3-3-1-4-4-4-4-1-4-4-4-4---------------------------|



E|-------------------------------------------------------------------|
B|-------------------------------------------------------------------|
G|-------------------------------------------------------------------|
D|-------------------------------------------------------------------|
A|-------------------------1---3-1-----------------------------------|
E|-1-3-3-3-3-1-3-3-3-3-1-3---3-----3---------------------------------|


   Riff 9
E|-------------------------------------------------------------------|
B|-------------------------------------------------------------------|
G|-------------------------------------------------------------------|
D|-4--5---4-5-7------------------------------------------------------|
A|-4--5---4-5-7------------------------------------------------------|
E|-2--3---2-3-5------------------------------------------------------|

Riff 1 X 3
Riff 2 X 5
Riff 3
Riff 1 X 2
Riff 3
Riff 1 X 2
Riff 4
Riff 1 X 4
Riff 3
Riff 1 x 2
Riff 3
Riff 1 X 2
Riff 4
Riff 1 X 8
Riff 5
Riff 6 X 4
SOLO
Riff 7 X 2
Riff 8 X 3
Riff 9
Riff 1 X 3
Riff 2 X 5
Riff 4
Riff 1 X 8





Comments


Popular Pantera tabs & chords
25 Years Bass Tabs
Cant Hide Bass Tabs
Cemetery Gates 1 Chords
13 Steps To Nowhere Drum Tabs
Hard Ride Tabs
Hellbound Tabs
Mouth For War 4 Tabs
The Great Southern Trendkill 2 Tabs
Underground In America 1 Tabs
Walk Tabs


Song lyrics



↑ Back to top | Tablatures and chords are parodies/interpretations of the original songs. You may use it for private study, scholarship, research or language learning purposes only
© 2014 AZChords.com Contact us | Privacy policy | DMCA | Add/correct tabs | Request tabs | Top 50 tabs