>
 >
It Makes Them Disappear

It Makes Them Disappear Guitar Tabs

Pantera - It Makes Them Disappear chords, tabs, tablatures, lyrics

Guitar lessons | Add/correct | Request | Top 50 tabs Artists:  A B C D E F G H I J K L M N O P Q R S T U V W X Y Z 0-9

It Makes Them Disappear Guitar Tabs – Pantera

CD, Sheet music, Poster

Do you like It Makes Them Disappear? Share with your friends now
Tabs
PANTERA - IT MAKES THEM DISAPPEAR
(Reinventing The Steel, 2000)

Key
= after note = vibrato
^ after note = heavy vibrato 
\ = slide down
/ = slide up
+ = tap
h = hammer
p = pull
n = natural harmonic
s = pinching harmonic (squeal)
* = tremolo pick
t = trill
b = bend
|-3-| = triplet

n number above the tab = play the first part then the first finishing part
			 play the first part a second time and then play the second finishing part
			 etc.

Tune To Drop D Down 1 1/4 Step

Riff 1

D ---------------0-----5-4-----
A ---------0-------0-------6-5-
F -----2-----2-------2---------
C ---3---------3---------------
G -5-----5---------------------
C -----------------------------

Riff 2

D -------------------------------------------------------------------------------------
A -------------------------------------------------------------------------------------
F -------------------------------------------------------------------------------------
C -0-------------------0------------------------0-------------------0------------------
G -0-------------------0--------8-7-4b5-4b5-4b5-0-------------------0----8----4--------
C -0--------6-5-3======0------------------------0--------6-5-3======0------------------

Riff 3

D -----------------------------------------------------------------------------
A -----------------------------------------------------------------------------
F -----------------------------------------------------------------------------
C -----------------------------------------------------------------------------
G -0-66-0-0-33-0-0-55-0-0-11-0-44-0-11-0-0-66-0-0-33-0-0-55-0-0-11-0-33-0-11-0-
C -0-66-0-0-33-0-0-55-0-0-11-0-44-0-11-0-0-66-0-0-33-0-0-55-0-0-11-0-33-0-11-0-

Riff 4

D ---------------------------------
A ---------------------------------
F ---------------------------------
C -0-1-1-1-0-0-0-1-1-1-0-0-X-X-X-X-
G -0-1-1-1-0-0-0-1-1-1-0-0-X-X-X-X-
C -0-1-1-1-0-0-0-1-1-1-0-0-X-X-X-X-

Riff 4A 

D ------------------------------
A ------------------------------
F ------------------------------
C -0-1-1-1-0-0-0-1-1-1-0-0-0----
G -0-1-1-1-0-0-0-1-1-1-0-0-0----
C -0-1-1-1-0-0-0-1-1-1-0-0-0----

Riff 5

D --------------------------------------------------
A --------------------------------------------------
F --------------------------------------------------
C ------------------------------------------1--1--1-
G ------------------------------------------1--1--1-
C -0-6\-0-0-4-1-0-6\-0-0-4-1-0-6\-0-0-4-1-0-1--1--1-

Riff 5A

D -----------------------------------------------------
A -----------------------------------------------------
F -----------------------------------------------------
C ------------------------------------------1--1--1--0-
G ------------------------------------------1--1--1--0-
C -0-6\-0-0-4-1-0-6\-0-0-4-1-0-6\-0-0-4-1-0-1--1--1--0-


Riff 6

D -----------------------------------------------------------------------------------------
A ----------5t6-----------------5t6-----------------5t6------------------12------12----12--
F -----------------------------------------------------------------------10------10----10--
C -0-------------------0-------------------0-------------------0---------------------------
G -0-------------------0-------------------0-------------------0---------------------------
C -0-------------------0-------------------0-------------------0-----0-0-----0-0-----0-----

Riff 7

D -----------------------------------------------------------------------------------------------
A -----------------------------------------------------------------------------------------------
F -----------------------------------------------------------------------------------------------
C -0-----12-----8-----8-----10-----10-----3---5---0-----12-----8-----8-----10-----10-----5---3---
G -0-----12-----8-----8-----10-----10-----3---5---0-----12-----8-----8-----10-----10-----5---3---
C -0-0-0-12-0-0-8-0-0-8-0-0-10-0-0-10-0-0-3---5---0-0-0-12-0-0-8-0-0-8-0-0-10-0-0-10-0-0-5---3---

Riff 7A

D ---------------------------------------------------------------------------------------------------------
A -13b15-13-10-------------------15-14-13-13-11-13-13-12-11-10------13b15-13-10-------------------15-14-13-
F -------------14-13-12-15-14-15----------------------------10------------------14-13-12-15-14-15----------
C ---------------------------------------------------------------------------------------------------------
G ---------------------------------------------------------------------------------------------------------
C ---------------------------------------------------------------------------------------------------------

D ----------------------------
A -13---13-15-14-13-15---13---
F ----0-------------0----0----
C ----------------------------
G ----------------------------
C ----------------------------

Order

Riff 1 x 4
Riff 2 x 2
Riff 3 x 4
Riff 4 x 3
Riff 4A x 1
Riff 3 x 2
Riff 4 x 3
Riff 4A x 1
Riff 5 x 3
Riff 5A x 1
Riff 1 x 2
Riff 2 x 1
Riff 3 x 4
Riff 4 x 3
Riff 4A x 1
Riff 5 x 3
Riff 5A x 1
Riff 6 x 1
Riff 7/7A x 2
Solo 
Riff 2 x 2
Riff 5 x 3
Riff 5A x 1





Comments


Popular Pantera tabs & chords
Cemetery Gates 2 Chords
Walk 1 Drum Tabs
13 Steps Tabs
13 Steps To Nowhere Tabs
25 Years 3 Tabs
All Over Tonight Tabs
Cementery Gates Tabs
Floods 1 Tabs
No Good 1 Tabs
Uplift 1 Tabs


Song lyrics



↑ Back to top | Tablatures and chords are parodies/interpretations of the original songs. You may use it for private study, scholarship, research or language learning purposes only
© 2014 AZChords.com Contact us | Privacy policy | DMCA | Add/correct tabs | Request tabs | Top 50 tabs