» » »

***Ing Hostile Bass tabs (ver.1)

Artists:  A B C D E F G H I J K L M N O P Q R S T U V W X Y Z # 

***Ing Hostile Bass tabs (ver.1)

Pantera
Rating:
0/5 (0 votes)

Hard to play? Try these video lessons and learn fast.
                Pantera
"***ing Hostile" bass tab

standard tuning 4-string bass EADG
Use a pick for best sound on this song

main riff
----------------------------------
----------------------------------
----------------------------------x4
-5--6-6-6--6-6--6-6-6-6--3--------

then
----------------------------------
----------------------------------
----------3-----------------------
-3--2--1--------------------------

chorus
----------------------------------
----------------------------------
-------------7---------5----------
-6--6-6-6-6-----------------------

----------------------------------
----------------------------------
--3--------5------3--------5------
------3---------------3-----------

----------------------------------
----------------------------------
--3-------------------------------
-------3--3----5------------------

----------------------------------
----------------------------------
-----------------------------5----
-6-6-6-6-6-6-6-6-6-6-6-6-6--------

----------------------------------
----------------------------------
-3------5-----3------5------------
----3------------3----------------

----------------------------------
----------------------------------
-3--------------------------------
-------3--3------5----------------

---------------------------------	    -----
---------------------------------	    -----
---------------------------------x7  then   -----
-0-0-0-0-3--0-3------------------	    --0--

during solo you can play this
----------------------------------
----------------------------------
--3--------5------3--------5------
------3---------------3-----------

outro
--------|--------|---------|----------
--------|--------|---------|----------
--------|--------|---------|----------
-3-4-5--|--3-4-5-|---3-4-5-|--2-3-4-5-
            
Hard to play? Try these video lessons and learn fast. | Correct




comments powered by Disqus
↑ Back to top | Tablatures and chords are parodies/interpretations of the original songs. You may use it for private study, scholarship, research or language learning purposes only