» » »

Fucking Hostile Tabs (ver.1)

Artists:  A B C D E F G H I J K L M N O P Q R S T U V W X Y Z # 

Fucking Hostile Tabs (ver.1)

Pantera
Rating:
0/5 (0 votes)

Hard to play? Try these video lessons and learn fast.
                Tab explanation:
pm = palm mute

|-----------------------------------------------------------|
|-----------------------------------------------------------|
|-----------------------------------------------------------|
|---------------------------------------------5-------------|
|---5-----------5-----------5----------5-4-3--3-------------|
|-0-3/5555555-0-3/5555555-0-3/5555555--3-2-1----------------|
pm    .......     .......     .......

|-------------------------------------------------|
|-------------------------------------------------|
|-------------------------------------------------|
|-7/5-5----7/5-5----7/5-5-------------------------|
|-5/3-3-5--5/3-3-5--5/3-3-5-5--7------------------|
|-------3--------3--------3-3--5--5-5-5-5-5-5-5-5-|
pm                                ...............

|--------------------------------|
|--------------------------------|
|--------------------------------|
|-7/5-5----7/5-5----7/5-5--------|
|-5/3-3-5--5/3-3-5--5/3-3-5-5--7-|
|-------3--------3--------3-3--5-|

|---------------------------------|
|---------------------------------|
|---------------------------------|
|---------------------------------|
|--------5---5--------------------|
|-0-00-0-3-0-3--------------------|
pm....

|---------------------------------|
|---------------------------------|
|---------------------------------|
|---------------------------------|
|-5-6-7--5-6-7--5-6-7-------------|
|-3-4-5--3-4-5--3-4-5-------------|

it's all right. Pantera ***in' rule man. Yeah.
            
Hard to play? Try these video lessons and learn fast. | Correct




comments powered by Disqus
↑ Back to top | Tablatures and chords are parodies/interpretations of the original songs. You may use it for private study, scholarship, research or language learning purposes only