>
 >
Domination (Solo)

Domination (Solo) Guitar Tabs

Pantera - Domination (Solo) chords, tabs, tablatures, lyrics

Guitar lessons | Add/correct | Request | Top 50 tabs Artists:  A B C D E F G H I J K L M N O P Q R S T U V W X Y Z 0-9

Domination (Solo) Guitar Tabs – Pantera

CD, Sheet music, Poster

Do you like Domination (Solo)? Share with your friends now
Tabs
Albm: Cowboys From Hell

   All the hard parts 100% correct and how to learn it.

   You need to have listened
   to the track alot so that you know the rythm changes

   I have come across seven other tabs of Domination. None were correct.

  -Just listen to the track,

   and you'll see that this is all you need to know.

   This is the only Domination solo tab that is absolutely correct;
   note-wise - and i have scoured the net.



   "b" bend
   "r" release bend
   "d" drop
   "~" vibrate
   "." mute by releasing finger
_______________________________________________________________________________

1 13-12-13-16-13-12-13-12----12-13-12|------------------------------|
2 ------------------------15---------|15-13-12----13-12----12-------|
3 -----------------------------------|---------14-------14----13-~~~|
4 -----------------------------------|------------------------------|
5 -----------------------------------|------------------------------|
6 -----------------------------------|------------------------------|

1 --------------------|
2 --------------------|
3 -9br~------9-10-----|
4 ------9-10----------|
5 ----------------6-~-|
6 --------------------|


The incredibly fast part :

1 --------------------------|--------------------------|
2 --------------------------|--------------------------|
3 --------------------------|------------------12-15---|
4 ------------------12-15---|---------12-15-18-------18|
5 ---------12-15-18-------18|12-15-18------------------|
6 12-15-18------------------|--------------------------|

1 --------------------------|--------------------------|
2 ------------------12-15-18|---------12-15-18-15-12-18|
3 ---------12-15-18---------|12-15-18------------------|
4 12-15-18------------------|--------------------------|
5 --------------------------|--------------------------|
6 --------------------------|--------------------------|

1 12-15-18-15-12-x-12-15-19-15-12-x|22-22-22-22-18---|
2 ---------------------------------|---------------20|
3 ---------------------------------|-----------------|
4 ---------------------------------|------(x 4)------|
5 ---------------------------------|-----------------|
6 ---------------------------------|-----------------|

1 21-21-21-21-18---|22b(24)-~~~-22b(24)-~-r(22)-~~~|
2 ---------------20|22b(24)-~~~-22b(24)-~-r(22)-~~~|
3 -----------------|-------------------------------|
4 ------(x 4)------|-------------------------------|
5 -----------------|-------------------------------|
6 -----------------|-------------------------------|

The not so fast part:

1 19-20-17-19----17------------------------------------|
2 ------------20----19-20-17-----19-20-17-19-20-17b(21)|
3 -----------------------------------------------------|
4 -----------------------------------------------------|
5 -----------------------------------------------------|
6 -----------------------------------------------------|

1 -17.16.15.14.-15-14-13-14-13-12----12-15b(17)-r|
2 --------------------------------15-------------|
3 -----------------------------------------------|
4 -----------------------------------------------|
5 -----------------------------------------------|
6 -----------------------------------------------|

1 --------------------------------------------------------------|
2 17-19-~~~~~-d-------------------------------------------------|
3 --------------------------------------------------------------|
4 --------------------------------------------------------------|
5 --------------------------------------------------------------|
6 --------------(long bend, w/bar)-5b(20)-~-14b(0.5)-~-7b(8)-~-r|

The insanely fast part :

1 ---------------|---------------|-----------------|
2 ---------------|---------------|-----------------|
3 ---------------|---------------|-----------------|
4 ---------------|---------------|-----------------|
5 ---------------|9-11-12-9-11-13|10-12-14-10-12-14|
6 9-11-12-9-11-12|---------------|-----------------|

1 -----------------|-----------------|-----------------|
2 -----------------|-----------------|-----------------|
3 -----------------|11-12-14-11-12-15|12-14-15-12-14-15|
4 10-12-14-10-12-14|-----------------|-----------------|
5 -----------------|-----------------|-----------------|
6 -----------------|-----------------|-----------------|

1 -----------------|-----------------|-----------------|
2 12-14-15-12-14-16|14-15-17-14-15-18|15-17-19-15-17-19|
3 -----------------|-----------------|-----------------|
4 -----------------|-----------------|-----------------|
5 -----------------|-----------------|-----------------|

1 15-17-19-15-17-19|17-19-20-17-19-21|19-20-22-19-20-22|
2 -----------------|-----------------|-----------------|
3 -----------------|-----------------|-----------------|
4 -----------------|-----------------|-----------------|
5 -----------------|-----------------|-----------------|
6 -----------------|-----------------|-----------------|

1 22b(25)-~~~~~-20b(21)-r-d|
2 --------------19b(22)-r-d|
3 -------------------------|
4 -------------------------|
5 -------------------------|
6 -------------------------|

Outtro solo (album):

Guitar 1:

1 17-13-12-13|16-13-12-13|17-13-12-13|
2 -----------|-----------|-----------|
3 ---(x 8)---|---(x 8)---|---(x 8)---|
 \_________(x 3)________/

1 16-16-13-12|17-17-14-13|18-18-15-14|19-19-16-15|20-20-17-16|21-21-18-17|22-d|
2 -----------|-----------|-----------|-----------|-----------|-----------|----|
3 -----------|-----------|-----------|-----------|-----------|-----------|----|

Guitar 2:

1 20-16-15-16|19-16-15-16|20-16-15-16|
2 -----------|-----------|-----------|
3 ---(x 8)---|---(x 8)---|---(x 8)---|
 \_________(x 3)________/


1 19-19-16-15|18-18-15-14|17-17-14-13|16-16-13-12|15-15-12-11|14-14-11-10|13-d|
2 -----------|-----------|-----------|-----------|-----------|-----------|----|
3 -----------|-----------|-----------|-----------|-----------|-----------|----|

Outtro solo (live):

1 17-13-12-13|16-13-12 13|17-13-12-13|
2 -----------|-----------|-----------|
3 ---(x 8)---|---(x 8)---|---(x 8)---|

1 16-16-13-12|17-17-14-13|18-18-15-14|19-19-16-15|20b(21)|
2 -----------|-----------|-----------|-----------|19b(21)|
3 -----------|-----------|-----------|-----------|-------|





Comments


Popular Pantera tabs & chords
Im Broken Bass Tabs
A New Level Intro Tabs
By Demons Be Driven Tabs
Cemetery Gates Tabs
Cemetery Gates 1 Tabs
I Am The Night Tabs
Ill Cast A Shadow 1 Tabs
Slaughtered 1 Tabs
This Love 4 Tabs
Cemetery Gates Ukulele


Song lyrics



↑ Back to top | Tablatures and chords are parodies/interpretations of the original songs. You may use it for private study, scholarship, research or language learning purposes only
© 2014 AZChords.com Contact us | Privacy policy | DMCA | Add/correct tabs | Request tabs | Top 50 tabs