» » »

Pantera, Cemetery Gates Tabs (ver.6)

Artists:  A B C D E F G H I J K L M N O P Q R S T U V W X Y Z # 

Cemetery Gates Tabs (ver.6)

Pantera Tabs
Rating:
0/5 (0 votes)
Cemetery Gates lessons Tabs too difficult? Try these video lessons and learn fast
                CEMETERY GATES
Revision by Stumble Pavor

This version is based mostly on Ray7788's version, ive just added the missing sections 
and revised the intro, first solo, chorus (i know loads of you wanted that!) and tried to even
 out the bars a bit to make it easier to count through. the main riff is done mainly with
 pinch harmonics and theres selective palm muting throughout the 'riff 1, 2 and 3' sections but
 its pretty clear where they are. I didnt touch the second solo as didnt have time, its left
 as i found it


Clean riff (Verse and intro)

e------------------|-----------------|----------------|------0-----------|
B----------2-------|------0--0-------|------0--0------|----2-----2-------|
G--------2---2-----|----4------4-----|----4------4----|--4---------4-----|
D------2-----------|--2--------------|--2----------0--|------------------|
A----4----------0--|-----------------|----------------|------------------|
E--2---------------|--------------0--|----------------|------------------|



 "I'm  a man..."
e|----------------|-----0----------0------|---0---------0------|
B|------0--0------|-----3-\-5------5-\-7--|---7-/-9-----9-/-10-|
G|----4------4----|--4--4-\-6------6-\-7--|---7-/-9-----9-/-11-|
D|--2----------0--|--------------0--------|-0--------0---------|
A|----------------|-----------------------|--------------------|
E|----------------|-----------------------|--------------------|


1st Guitar Solo
|-----------------|------------|-------------------|------------|
|-----------------|------------|--------10--(12)---|---9-(10)---|
|---9--~~~~~~--8~~|~~~-------7~|~~~--x-----------6-|------------|
|-----------------|------------|---x---------------|------------|
|-----------------|------------|-------------------|------------|
|-----------------|------------|-------------------|------------|


|-------------------|--9-(11)----|---------|--------|
|------12--(14)-----|------------|---------|--------|
|--9-------------8--|----------7~|~~~~~~---|-6------|
|-------------------|------------|---------|--------|
|-------------------|------------|---------|--------|
|-------------------|------------|---------|--------|


|-------------------|----------------------|
|-------------------|----------------------|
|-------------4-(6)-|-(4)---(6)--(4)---(6)-|
|------4-~~~~-------|----------------------|
|----x--------------|----------------------|
|--x----------------|----------------------|


|---------------|--------------------------|------------------------|---------|
|---------5-(7)-|-(5)~~~-5-(7)-(5)-(7)-(5)-|-(7)-(5)-(7)-(5)-(7)~~~~|~~~~~~~--|
|-(4)-----------|--------------------------|------------------------|-------6-|
|-----2---------|--------------------------|------------------------|------x--|
|---------------|--------------------------|------------------------|-----x---|
|---------------|--------------------------|------------------------|---------|


|-------------------|---------------------|---------------------------|-------|
|-14--0-14-12~~~-15~|~~0-15-17~~~0-17-19~~|-0-19-21~~~-0-21-22~~~~~~~-|~~~~~~~|
|-------------------|---------------------|---------------------------|-------|
|-------------------|---------------------|---------------------------|-------|
|-------------------|---------------------|---------------------------|-------|
|-------------------|---------------------|---------------------------|-------|

1:33
Riff 1
e----------------------------------|
B----------------------------------|
G----------------------------------|
D--2--2-2-2-2---------------9------|
A--0--0-0-0-0--7-6-7--8-7-8---7-8--|
E----------------------------------|

e-------------------------------------------|
B-------------------------------------------|
G-------------------------------------------|
D--2--2-2-2-2-------------------------------|
A--0--0-0-0-0--7-6-7--8-6-7---6-------------|
E---------------------------8---7~~---------|

Repeat Riff 1 two more times, then on the third time play Riff 2

Riff 2
e----------------------------------|
B----------------------------------|
G----------------------------------|
D--2--2-2-2-2---------------9------|
A--0--0-0-0-0--7-6-7--8-7-8---7-8--|
E----------------------------------|

e------------------------------------|
B------------------------------------|
G------------------------------------|
D--2--2-2-2-2------------------------|
A--0--0-0-0-0--7-6-7--8-6-7-----2--3-|
E---------------------------7\--0--1-|

Riff 3
e----------------------------------|
B:--------------------------------:|
G----------------------------------|
D:--------2-2-2-2-4-4-4-4-5-------:|
A--4-4-4--0-0-0-0-2-2-2-2-3--2--3--|
E--2-2-2---------------------0--1--|

Repeat Riff 3 one more time dragging the last two notes out a little, play it again normal,
then play it a final time playing the last note again.

Now comes the softer part of the song. Play this three times:

 "Reverend..."
e------------------|-----------------|----------------|------0-----------|
B----------2-------|------0--0-------|------0--0------|----2-----2-------|
G--------2---2-----|----4------4-----|----4------4----|--4---------4-----|
D------2-----------|--2--------------|--2----------0--|------------------|
A----4----------0--|-----------------|----------------|------------------|
E--2---------------|--------------0--|----------------|------------------|

On the fourth time, play this: (with pick)
 "I watch..."
e------------------|-----------------|----------------|
B----------2-------|------0--0-------|------0--0------|
G--------2---2-----|----4------4-----|----4------4----|
D------2-----------|--2--------------|--2----------0--|
A----4----------0--|-----------------|----------------|
E--2---------------|--------------0--|----------------|


2:32 Slide the pick down the neck, then play CHORUS:

e-----------------|---------------|-------------|-----------|
B:----------------|---------------|-------------|----------:|
G---------------2-|---------------|-------------|-7---7-----|
D--4---------7--2-|----------7--2-|----------7--|-7---7-----|
A:-4------/9----0-|-------/9----2-|-------/9----|-5---4----:|
E--2--------------|-------------0-|-------------|---------0-|

PLAY THREE TIMES, THEN THIS:

e----------------|---------------|-------------|--------------------|
B----------------|---------------|-------------|--------------------|
G--------------2-|---------------|-------------|-7-7-7-7------------|
D-4---------7--2-|----------7--2-|----------7--|-7-7-7-7--7--7-7\---|
A-4------/9----0-|-------/9----2-|-------/9----|-5-5-5-4--7--7-7\---|
E-2--------------|-------------0-|-------------|----------4--4-5\---|


Then at 3:02, play:

Riff 1, 2, 3 AS BEFORE

VERSE AS BEFORE

CHORUS AS BEFORE

Then at 4:25, play:

Riff 1
e----------------------------------|--------------------------------------|
B----------------------------------|--------------------------------------|
G----------------------------------|--------------------------------------|
D--2--2-2-2-2---------------9------|--2--2-2-2-2--------------------------|
A--0--0-0-0-0--7-6-7--8-7-8---7-8--|--0--0-0-0-0--7-6-7--8-6-7---6--------|
E----------------------------------|---------------------------8---7~~----|


e----------------------------------|--------------------------------------|
B----------------------------------|--------------------------------------|
G----------------------------------|--------------------------------------|
D--2--2-2-2-2---------------9------|--2--2-2-2-2--------------------------|
A--0--0-0-0-0--7-6-7--8-7-8---7-8--|--0--0-0-0-0--7-6-7--8-6-7---6--------|
E----------------------------------|---------------------------8---7~~(8)-|


e----------------------------------|--------------------------------------|
B----------------------------------|--------------------------------------|
G----------------------------------|--------------------------------------|
D------------------------9---------|--2--2-2-2-2--------------------------|
A-----------7-6-7--8-7-8---7-8-----|--0--0-0-0-0--7-6-7--8-6-7---6--------|
E-(8)------------------------------|---------------------------8---7~~----|

e----------------------------------|
B----------------------------------|
G----------------------------------|
D--2--2-2-2-2---------------9------|
A--0--0-0-0-0--7-6-7--8-7-8---7-8--|
E----------------------------------|

e------------------------------------------------------------|
B------------------------------------------------------------|
G------------------------------------------------------------|
D--2--2-2-2-2---------5--------5--------5-5-------5-5--------|
A--0--0-0-0-0--7-6-7--3--2--3--3--2--3--3-3-2--3--3-3--2--3--|
E------------------------0--1-----0--1------0--1-------0--1--|

Now here's the second solo:

4:52
------------------------|-----5-----5--4------|
---2-----2--5/7\5--3p2--|~~~-----2------------|
------4-----------------|---------------------|
------------------------|---------------------|
------------------------|---------------------|
------------------------|---------------------|

|----12--------9---|-------|--12-----10--(10)~~~--10p9--|------9------|
|--------9-----10--|--5/9--|------9---------------------|--12---------|
|/9---------9------|-------|----------------------------|-------------|
|------------------|-------|----------------------------|-------------|
|------------------|-------|----------------------------|-------------|
|------------------|-------|----------------------------|-------------|

                                                     Full   Full
------------|----------------------|--------7-----7-------------------|
10~~~--(10)\|/10--9--8--7--6--5h6--|--7~~~-----7------7~~~---(7)------|
------------|----------------------|----------------------------------|
------------|----------------------|----------------------------------|
------------|----------------------|----------------------------------|
------------|----------------------|----------------------------------|

             Full   Tap                              Tap
----------7-----------------------------|----7h9h10---12p10p9p7h9-----|
~~~--(7)------7------8p(7)--(7)p(5)~~~--|/9---------------------------|
----------------------------------------|-----------------------------|
----------------------------------------|-----------------------------|
----------------------------------------|-----------------------------|
----------------------------------------|-----------------------------|

     Tap                    Tap     Tap           Tap     Tap
h10---12/14--(14)p12p10--|---14p10---14/16p14p12---15p12---15/17------|
-------------------------|--------------------------------------------|
-------------------------|--------------------------------------------|
-------------------------|--------------------------------------------|
-------------------------|--------------------------------------------|
-------------------------|--------------------------------------------|

(17)p16p14--14--19/21--17------17--|------19--16------16--------------|
---------------------------19------|--19----------17------17~~~-------|
-----------------------------------|----------------------------------|
-----------------------------------|----------------------------------|
-----------------------------------|-----------------------------7----|
-----------------------------------|----------------------------------|

---|--------------------------------------------------------|---------|
---|--------------------------------------------------------|---------|
---|-----------------------------------------9--10--11--12--|---------|
---|---------------6--7--8--9--8--9--10--11-----------------|---------|
7--|--7--8--9--10-------------------------------------------|--x------|
---|--------------------------------------------------------|---------|

                  P.SFull                Full                Full
------------------|-----------14------------------14------------------|
------------------|-------14------17p14-------14------17p14-----------|
---6--------6----\|---16------------------16------------------16------|
x--------x--------|---------------------------------------------------|
------x-----------|---------------------------------------------------|
------------------|---------------------------------------------------|

                  Full                    Full     Full     Full
----14--|----------------------14--------------14-------14-------|----|
14------|--17p14-------14--14------17p14---17-------17-------17--|----|
--------|----------16--------------------------------------------|----|
--------|--------------------------------------------------------|----|
--------|--------------------------------------------------------|----|
--------|--------------------------------------------------------|----|

21p14--21p14--21p14--21p14--20--20p14--20--20p14--20p14--|--19h20-----|
---------------------------------------------------------|------------|
---------------------------------------------------------|------------|
---------------------------------------------------------|------------|
---------------------------------------------------------|------------|
---------------------------------------------------------|------------|

p19p17------19h20p19p17------------------------14--16--|--17--16------|
--------19---------------19--19--19--19~~~/17----------|--------------|
-------------------------------------------------------|--------------|
-------------------------------------------------------|--------------|
-------------------------------------------------------|--------------|
-------------------------------------------------------|--------------|

14------14--17h19p17p14--14h17p14h17p14--14--14-----------------------|
----17-------------------------------------------19p17p14--17p14------|
----------------------------------------------------------------------|
----------------------------------------------------------------------|
----------------------------------------------------------------------|
----------------------------------------------------------------------|

|---------------------------------------------------------------------|
|--14h15p14h15p14------14---------------------------------------------|
|------------------17------17p14--16p14------14--------14h16p14-------|
|----------------------------------------16------1/16-----------------|
|---------------------------------------------------------------------|
|---------------------------------------------------------------------|

w/ bar w/ bar        w/ bar
-------------------------------------------------|--------------------|
-------------------------------------------------|--------------------|
-\(14)\----13p11\10-\---11p10p9--11p1p9--10p9p8--|--10p9p8------------|
-------------------------------------------------|--------------------|
-------------------------------------------------|--------------------|
-------------------------------------------------|--------------------|

w/ bar   w/ barw/ bar      P.dive w/ bar
------------------------------------||--------------------------------|
------------------------------------||--------------------------------|
-/9p(7)-/9----/6------------\\------||--------------------------------|
------------------------x-----------||--------------------------------|
---------------------x--------------||--------------------------------|
------------------------------------||--------------------------------|

In the background, another guitar is playing:

e------------------|-----------------|----------------|------0-----------|
B----------2-------|------0--0-------|------0--0------|----2-----2-------|
G--------2---2-----|----4------4-----|----4------4----|--4---------4-----|
D------2-----------|--2--------------|--2----------0--|------------------|
A----4----------0--|-----------------|----------------|------------------|
E--2---------------|--------------0--|----------------|------------------|

Until 5:18, then comes:

Riff 3
e----------------------------------|---------------------------------------|
B----------------------------------|---------------------------------------|
G:---------------------------------|--------------------------------------:|
D---------2-2-2-2-4-4-4-4-5--------|---------2-2-2-2-4-4-4-4--4-4-5--4--2--|
A:-4-4-4--0-0-0-0-2-2-2-2-3--2--3--|--4-4-4--0-0-0-0-2-2-2-2--2-2-3--2--0-:|
E--2-2-2---------------------0--1--|--2-2-2--------------------------------|

play 4 times, then:

e-------------|
B-------------|
G-------------|
D--5--4--2----|
A--3--2--0----|
E-------------|

Then Riff 1 as at 4:25 (watch the ending!)

Then:

6:14
e----------------------------------|
B----------------------------------|
G----------------------------------|
D--2--2-2-2-2----------------------|
A--0--0-0-0-0--7-6-7~~~~~~---------|
E----------------------------------|

e-------------------------------------------|
B-------------------------------------------|
G-------------------------------------------|
D--2--2-2-2-2------------9~~----------------|
A--0--0-0-0-0--7-6-7--8---------------------|
E-------------------------------------------|

Repeat till end

Have fun, please rate its my second tab
            

comments powered by Disqus
↑ Back to top | Pantera Tabs for Cemetery Gates. Lyrics for acoustic guitar and electric guitar. Tablatures and chords are parodies/interpretations of the original songs. You may use it for private study, scholarship, research or language learning purposes only