» » »

Pantera, Cemetary Gates Tabs (ver.1)

Artists:  A B C D E F G H I J K L M N O P Q R S T U V W X Y Z # 

Cemetary Gates Tabs (ver.1)

Pantera Tabs
Rating:
0/5 (0 votes)
Hard to play? Try these video lessons and learn fast.
                Opening Rhythm 1: Dimebags best acoustic ballad. Play several times.
Simple bar chord with a few inversions.
E :----------------|----------------|----------------|------0--------- 1|
B :--------2-------|------0---------|------0---------|----2-----2----- ||
G :------2-----2---|----4-----4-----|----4-----4-----|--4---------4---*||
D :----2-----------|--2---------2---|--2---------2---|----------------*||
A :--4-----------0-|----------------|--------------4-|---------------- ||
E :2---------------|--------------0-|----------------|--------------0- ||

E :----------------|----------------|----------------|--------0------- 1|
B :--------2-------|------0---------|------0---------|--2-------2----- ||
G :------2-----2---|----4-----4-----|----4-----4-----|----4-------4---*||
D :----2-----------|--2---------2---|--2---------2---|----------------*||
A :--4-----------0-|----------------|--------------4-|------4--------- ||
E :2---------------|--------------0-|----------------|--------------0- ||

Opening Rhythm 2:
E :---------------------------|----------------------------------||
B :------3-/-6---------5-/-7--|------------0-------------0-------||
G :--4---4-/-5---------6-/-7--|--7---------7-/-9---------9-/-11-*||
D :-----------------0---------|--------0-------------0----------*||
A :---------------------------|----------------------------------||
E :---------------------------|----------------------------------||

I'm not covering the first solo because it's on like two strings and it's
just single notes and bends and a few artificial harmonics in F#. You
can figure it out.

First Solo Rhythm:
E :--2--2-------2--------|--2--2--------2--------||
B :--5-----5-------5-----|--4-----4--------4-----||
G :--2--------2-------2--|--2--------2--------2--||
D :--2-------------------|--2--------------------||
A :--4-------------------|--4--------------------||
E :--2-------------------|--2--------------------||

E :--2--2--------2-------|--2--2--------2--------||
B :--3-----3--------3----|--2-----2--------2-----||
G :--2--------2--------2-|--2--------2--------2--||
D :--2-------------------|--2--------------------||
A :--4-------------------|--4--------------------||
E :--2-------------------|--2--------------------||

Then back to Opening Rhythm 2 at the end of the solo

Main/Chorus Riff: Put your pickup selector on treble to make the artificial
harmonics squeal like Dime does. Use all downstrokes to make it sound
heavier. Don't slide between any of the notes, or the artificial harmonic
will die out. Hammer-on and pull-off to each note. The timing isn't right,
so you can figure it out.
P.M.  *  *  *  *                                   *  *  *  *
A.Harmonics       "       "     "    "  "                      "     "   "
E :-------------------------|---------------------|-----------------------|
B :-------------------------|---------------------|-----------------------|
G :-------------------------|---------------------|-----------------------|
D :-------------------------|--------7~-----------|-----------------------|
A :7--7--7--7--7--7p6h7---8~|---7h8-----7h8----7--|7--7--7--7--7p6h7-8~--6|
E :5--5--5--5--5------------|------------------5--|5--5--5--5-------------|
    " " " "
E :----------------- 1|
B :----------------- ||
G :-----------------*||
D :-----------------*||
A :-7---6----------- ||
E :---8---7~-------- ||

Into the pre-verse: Cut off the last 2 notes of the main riff and play this.
Once again, all downstrokes. Palm mute the low E and F power chords the
third time through. End the sequence with Palm Muted low E and F power
chords then a regular F# power chord.
P.M.          * *      * *       * *
E :-----------------------|-----------------------|
B :-----------------------|-----------------------|
G :-----------------------|-----------------------|
D :-----------------------|-----------------------|
A :2---3---4--4-4---7--7-7|---9--9-9---10---------|
E :0---1---2--2-2---5--5-5|---7--7-7----8---------|

Back to the chorus with the opening rhythm

Pre-chorus: Pretty simple and straight forward

E :----------------|----------------|----------------|----
B :----------------|----------------|----------------|----
G :----------------|----------------|----------------|----
D :----------------|----------------|----5----4------|----  repeat
A :4-----------2---|--------4-------|----3----2-----2|-4--
E :2-------2/5-0---|----2/5-2-------|2-5------------0|-2--

Solo: The rhythm is the opening acoustic ballad, then half way
through it switches to the pre-verse riff. The solo is in F#. It's a lot
harder than it sounds. It's harder than faster solos like "Domination" and
"Cowboys from Hell." Have your pinky stretched well cause you gotta
stretch quite a bit. I spaced it out quite a bit so it won't be too
complicated to look at. Good Luck.

B= Bend Full Step. If it's a different amount the number is next to it.

**All notes in brackets() are notes you don't pick. They are notes you slide
 from, notes that result from tapping another note, or implied notes.**
            Sl.
----------------------------------5-----5--4--~~~~-------12---12--9------
2----3----5-5/7\5--3p2~~~~~~~~-2----2------------------------------------
---------------------------------------------------(4)/9----9------------


      Sl.                                               Heavy Vib.
9~~------------12-----10-------10~~---10p9-----------9----------------
10---5/9-----------9-----------------------------12-----10~~~~--------


        Sl.                        Vib.               Bend full step and hold
--------------------------------------------7-----7--------------------------
--------/10--9--8--7--6--5h6-------7~~---------7------7----------------------


                  R       B           Tap     R
----------------------7------------------------------------------------------
~~~~~~~~~~~-------7-------7------------8p7---7p5-------5~~-------(5)\-/9-----


            T                T Sl.                     T       T
---7h9h10---12p10p9p7h9h10---12/14~------14p12p10-----14p10---14/16----16\--


         T       T
p14p12---15p12---15/17-----(17)p16p14--------14--19/21-----17------17-------


rake----|                                        PM---------|
-------19--16---------------------------------------------------------------
----X----------17~~~--(17)\-------------------------------------------------
-X--------------------------------------------------------------------------
-----------------------------------------------6--7--8--9--8--9--10--11-----
---------------------------7--7---7--8--9--10-------------------------------


PM-----------|   rake-----|       rake----|        rake----|           Bend
------------------------9---X--X---------9---X--X---------9-----(9)-\------
------------------------10~~X--X---------10~~X--X---------10~~~-(10)\------
-8--9--10--11--------X----------------X----------------X----------------16-
------------------X----------------X----------------X----------------------

 "Smear Lick"

                Bend                Bend                   Bend
----14------------------14------------------14------------------------14----
14------17p14-------14------17p14-------14--------17p14-------14--14--------
----------------16------------------16--------------------16----------------


        Bend        Bend     Bend
---------------14-------14---------21p14--(21)--21p14--21p14--21p14--20--20-
17p14---17----------17-------17---------------------------------------------



p14--20--20p14--20p14----19h20p19p17------19h20p19p17-----------------------
--------------------------------------19---------------19--19--19--19~~~~~~~



--------14--16----17--16--14------14--17/19p17p14--14h17p14h17p14--14--14---
-19\/17-----------------------17--------------------------------------------



19p17p14--17h14----14h15p14h15p14------14-----------------------------------
-----------------------------------17------17p14--16p14------14-------------
---------------------------------------------------------16------16~~~~~~~~~


                  B1.5    B1.5                  B.5     A.H.
----------14h16p-14------(14)-----(14)--13p11\-10------11p10p9--11p10p9--10-
-16\/16---------------------------------------------------------------------


                  B      B1.5            B      B         A.H. Dive w/ Bar
Rake----|
p9p8----10p9p8---9------(9)-----(9)p7---9------6~~~---------6~~~~---------
--------------------------------------------------------X-----------------
-----------------------------------------------------X--------------------
            

comments powered by Disqus
↑ Back to top | Pantera Tabs for Cemetary Gates. Lyrics for acoustic guitar and electric guitar. Tablatures and chords are parodies/interpretations of the original songs. You may use it for private study, scholarship, research or language learning purposes only