>
 >
By Demons Be Driven 1

By Demons Be Driven 1 Guitar Tabs

Pantera - By Demons Be Driven 1 chords, tabs, tablatures, lyrics

Guitar lessons | Add/correct | Request | Top 50 tabs Artists:  A B C D E F G H I J K L M N O P Q R S T U V W X Y Z 0-9

By Demons Be Driven 1 Guitar Tabs – Pantera

CD, Sheet music, Poster

Do you like By Demons Be Driven 1? Share with your friends now
Bass TabsBass Tabs v2Bass Tabs v3TabsTabs v2
-------------------------------------------------------------------------------
                             BY DEMONS BE DRIVEN - Pantera
-------------------------------------------------------------------------------

Tuning: Standard Tuning

 Intro.
e|---------------------------------------------------------|
B|-------------------5-------------------------------------|
G|-------------------6b------------------------------------|
D|---------------------------------------------------------|
A|-------2-------2--------------2-------2--3/5\3/5\3-------|
E|-0000000-0000000--------0000000-0000000--1/3\1/3\1-------|



 Transition
e|---------------------------------|
B|---------------------------------|
G|---------------------------------|
D|--------------/6-----------------|
A|-3-5-3-5-3--------7-5~-----------|
E|-1-3-1-3-1-----------------------|



 Verse
e|------------------------------------------------------------|
B|------------5~----------------------------------------------|
G|------------------------------------------------------------|
D|---------0--------------------------------------------------|
A|---2/5-7--------7-6-5---------------3-4-5~-------1-2-3~-----|
E|-0--------------------7-6-5~--3-4-5--------3-2-1------------|

e|------------------------------------------------------------|
B|------------5~----------------------------------------------|
G|------------------------------------------------------------|
D|---------0--------------------------------------/6----------|
A|---2/5-7--------7-6-5---------------3-4-5~---------7-5~-----|
E|-0--------------------7-6-5~--3-4-5--------3-2--------------|

e|------------------------------------------------------------|
B|------------5~----------------------------------------------|
G|------------------------------------------------------------|
D|---------0--------------------------------------------------|
A|---2/5-7--------7-6-5---------------3-4-5~-------1-2-3~-----|
E|-0--------------------7-6-5~--3-4-5--------3-2-1------------|

e|-----------------------------------------------------------------|
B|------------5~---------------------------------------------------|
G|------------------------------------------------------------5+---|
D|---------0-----------------------------------------4--------5+---|
A|---2/5-7--------7-6-5---------------3-4-5~-------1-2--2~---------|
E|-0--------------------7-6-5~--3-4-5--------3-2-1------0~---------|




 Chorus
e|--------------------------------------------------------------|
B|---------------------5----------------------------------------|
G|---------------------6b---------------------------------------|
D|--------------------------------------------------------------|
A|-------2~--------2~-------------2~--------2~---3/5\3/5\3------|
E|-0000000~--0000000~-------0000000~--0000000~---1/3\1/3\1------|




 Breakdown/Solo
e|----------------------------|
B|-3+-----2.75+--------2+-----|
G|----3+--------2.75+-----2+--|
D|----------------------------|
A|----------------------------|
E|----------------------------|x2
 2.75 means midway through the 2nd and 3rd frets.

e|-----------------------------------------------------|
B|-----------------------------------------------------|
G|-7/9--9br--12br-12br------7/9--9br--12br-------------|
D|------------------------------------------7br--------|
A|-5/7--7br--10br-10br------5/7--7br--10br-------------|
E|------------------------------------------5br--------|

e|----------------------------|
B|-3+-----2.75+--------2+-----|
G|----3+--------2.75+-----2+--|
D|----------------------------|
A|----------------------------|
E|----------------------------|x2

e|--------------------------------------------------|
B|--------------------------------------------------|
G|-7/9-9br-7/9-9br-12br---7/9-9br-7/9-9br-----------|
D|-----------------------------------------7br------|
A|-5/7-7br-5/7-7br-10br---5/7-7br-5/7-7br-----------|
E|-----------------------------------------5br------|


 Outro.
e|----------------------|
B|----------------------|
G|----------------------|
D|----------------------|
A|-------2----------2---|
E|-0000000--000000000---|x10

************************************
Song Structure:

Intro.
Transition
Verse
Chorus
Transition
Verse
Breakdown/Solo
Outro

************************************

| /   slide up
| \   slide down
| h   hammer-on
| p   pull-off
| ~   vibrato
| +   harmonic
| x   Mute note
| b   Bend
| pb  Pre-bend
| br  Bend release
| pbr Pre-bend release
| brb Bend release bend

************************************





Comments


Popular Pantera tabs & chords
Fucking Hostile Bass Tabs
The Art Of Shredding Cool Intro Bass Tabs
Walk 1 Drum Tabs
Cemetery Gates 2 Tabs
Cowboys From Hell Tabs
Mouth For War Tabs
Planet Caravan 2 Tabs
Rise Tabs
Use My Third Arm Tabs
Well Grind That Axe For A Long Time 1 Tabs


Song lyrics



↑ Back to top | Tablatures and chords are parodies/interpretations of the original songs. You may use it for private study, scholarship, research or language learning purposes only
© 2014 AZChords.com Contact us | Privacy policy | DMCA | Add/correct tabs | Request tabs | Top 50 tabs