>
 >
Avoid The Light 1

Avoid The Light 1 Guitar Tabs

Pantera - Avoid The Light 1 chords, tabs, tablatures, lyrics

Guitar lessons | Add/correct | Request | Top 50 tabs Artists:  A B C D E F G H I J K L M N O P Q R S T U V W X Y Z 0-9

Avoid The Light 1 Guitar Tabs – Pantera

CD, Sheet music, Poster

Do you like Avoid The Light 1? Share with your friends now
TabsTabs v2Tabs v3
Hey this is the tab of Avoid The Light By Pantera

This tab is from a guitar pro 5 sheet and i do not take any credit for this work
Here it is!!
Have Fun!!!

Intro-Main

C#||--6---8--|--10--10-10-10--10--10-10-10--10-----|
G#||--8--10--|--11--11-11-11--11--11-11-11--11-----|
E ||--0---0--|---0---0-----0---0---0-----0---0--0--|
B ||---------|-------------------------------------|
F#||---------|-------------------------------------|
C#||---------|-------------------------------------|


|---8---8--8--8---8---8--8--8---8-----|--5--5-5-5--5--5-5-5--5--1--|
|--10--10-10-10--10--10-10-10--10-----|--6--6-6-6--6--6-6-6--6--3--|
|---0---0-----0---0---0-----0---0--0--|--0--0---0--0--0---0--0--0--|
|-------------------------------------|----------------------------|
|-------------------------------------|----------------------------|
|-------------------------------------|----------------------------|


|--3--3-3-3--3--3-3-3--6---8--|--10--10-10-10--10--10-10-10--10-----|
|--4--4-4-4--4--4-4-4--8--10--|--11--11-11-11--11--11-11-11--11-----|
|--0--0---0--0--0---0--0---0--|---0---0-----0---0---0-----0---0--0--|
|-----------------------------|-------------------------------------|
|-----------------------------|-------------------------------------|
|-----------------------------|-------------------------------------|


|---8---8--8--8---8---8--8--8---8-----|--5--5-5-5--5--5-5-5--5--1--|
|--10--10-10-10--10--10-10-10--10-----|--6--6-6-6--6--6-6-6--6--3--|
|---0---0-----0---0---0-----0---0--0--|--0--0---0--0--0---0--0--0--|
|-------------------------------------|----------------------------|
|-------------------------------------|----------------------------|
|-------------------------------------|----------------------------|


|--3--3-3-3--3--3-3-3--6---8--|--10--10-10-10--10--10-10-10--10-----|
|--4--4-4-4--4--4-4-4--8--10--|--11--11-11-11--11--11-11-11--11-----|
|--0--0---0--0--0---0--0---0--|---0---0-----0---0---0-----0---0--0--|
|-----------------------------|-------------------------------------|
|-----------------------------|-------------------------------------|
|-----------------------------|-------------------------------------|


|---8---8--8--8---8---8--8--8---8-----|--5--5-5-5--5--5-5-5--5--1--|
|--10--10-10-10--10--10-10-10--10-----|--6--6-6-6--6--6-6-6--6--3--|
|---0---0-----0---0---0-----0---0--0--|--0--0---0--0--0---0--0--0--|
|-------------------------------------|----------------------------|
|-------------------------------------|----------------------------|
|-------------------------------------|----------------------------|


|--3--3-3-3--3--3-3-3--6---8--|--10--10-10-10--10--10-10-10--10-----|
|--4--4-4-4--4--4-4-4--8--10--|--11--11-11-11--11--11-11-11--11-----|
|--0--0---0--0--0---0--0---0--|---0---0-----0---0---0-----0---0--0--|
|-----------------------------|-------------------------------------|
|-----------------------------|-------------------------------------|
|-----------------------------|-------------------------------------|


|---8---8--8--8---8---8--8--8---8-----|--10--10-10-10--10--10-10-10--10--10--|
|--10--10-10-10--10--10-10-10--10-----|--11--11-11-11--11--11-11-11--11--11--|
|---0---0-----0---0---0-----0---0--0--|---0---0-----0---0---0-----0---0---0--|
|-------------------------------------|--------------------------------------|
|-------------------------------------|--------------------------------------|
|-------------------------------------|--------------------------------------|


|--10--10-10-10--15---|
|--11--11-11-11--11---|
|---0---0-----0---0---|
|---------------------|
|---------------------|
|---------------------|


Interlude
|--------------------------|
|--------------------------|
|--------0--------0--------|
|-----0--------0--------0--|
|--------------------------|
|--3--------4--------1-----|


|--------------------------|--------------------------|
|--------------------------|--------------------------|
|--0--------0-----0-----0--|--------0--------0--------|
|--------0-----------------|-----0--------0--------0--|
|--------------------------|--------------------------|
|-----6--------5-----4-----|--3--------6--------5-----|


|--------------------------|--------------------------|
|--------------------------|--------------------------|
|--0--------0-----0-----0--|--------0--------0--------|
|--------0-----------------|-----0--------0--------0--| 
|--------------------------|--------------------------|
|--L--9--------8-----6-----|--3--------4--------1-----|


|--------------------------|--------------------------|
|--------------------------|--------------------------|
|--0--------0-----0-----0--|--------0--------0--------|
|--------0-----------------|-----0--------0--------0--|
|--------------------------|--------------------------|
|-----6--------5-----4-----|--3--------6--------5-----|


|----------------------------|-------------------6---8--|
|----------------------------|-------------------8--10--|
|--0---------0------0-----0--|-------0-----0-----0---0--|
|---------0------------------|----------0-----0---------|
|----------------------------|--------------------------|
|-----11--------10-----8-----|--3-----------------------|


|--10----6---8--10--------|
|--11----8--10--11--------|
|---0----0---0---0--------|
|-------------------------|
|-------------------------|
|-------------------------|


Pre-Verse
|-------------------|-----------------------------------------|
|-------------------|-----------------------------------------|
|-------------------|-----------------------------------------|
|--2----------------|--8----9~---(8)---8*~------<5>~-4~-------|
|--2----------------|------------------------------------5~---|
|--0----------------|-----------------------------------------|


|-------------------|-----------------------------------------|
|-------------------|-----------------------------------------|
|-------------------|-----------------------------------------|
|--2----------------|--8----9~---(8)---8*~------<5>~-4~--8~---|
|--2----------------|-----------------------------------------|
|--0----------------|-----------------------------------------|


Verse
|-----------------------------------|
|-----------------------------------|
|-----------------------------------|
|-----5-----------5-----------------|
|----------5/8---------5/8----5/8---|
|--0-----0------0----0------0-------|


|-----------------------------------|-----------------------------------|
|-----------------------------------|-----------------------------------|
|-----------------------------------|-----------------------------------|
|-----5-----------5-----------------|-----5-----------5-----------------|
|----------5/8---------5/8----5/8---|----------5/8---------5/8----5/8---|
|--0-----0------0----0------0-------|--0-----0------0----0------0-------|


|----------------------------------|-----------------------------------|
|----------------------------------|-----------------------------------|
|----------------------------------|-----------------------------------|
|--5-5-5-5-5-5-7-7-7-7-7-7-8-8-8-8-|-----5-----------5-----------------|
|--5-5-5-5-5-5-7-7-7-7-7-7-8-8-8-8-|----------5/8---------5/8----5/8---|
|--3-3-3-3-3-3-5-5-5-5-5-5-6-6-6-6-|--0-----0------0----0------0-------|


|-----------------------------------|-----------------------------------|
|-----------------------------------|-----------------------------------|
|-----------------------------------|-----------------------------------|
|-----5-----------5-----------------|-----5-----------5-----------------|
|----------5/8---------5/8----5/8---|----------5/8---------5/8----5/8---|
|--0-----0------0----0------0-------|--0-----0------0----0------0-------|


|--------------------------------------|-----------------------------------|
|--------------------------------------|-----------------------------------|
|--------------------------------------|-----------------------------------|
|--8-8-8-8-8-8-9-9-9-9-9-9-10-10-10-10-|-----5-----------5-----------------|
|--8-8-8-8-8-8-9-9-9-9-9-9-10-10-10-10-|----------5/8---------5/8----5/8---|
|--6-6-6-6-6-6-7-7-7-7-7-7--8--8--8--8-|--0-----0------0----0------0-------|


|-----------------------------------|-----------------------------------|
|-----------------------------------|-----------------------------------|
|-----------------------------------|-----------------------------------|
|-----5-----------5-----------------|-----5-----------5-----------------|
|----------5/8---------5/8----5/8---|----------5/8---------5/8----5/8---|
|--0-----0------0----0------0-------|--0-----0------0----0------0-------|


|----------------------------------|-----------------------------------|
|----------------------------------|-----------------------------------|
|----------------------------------|-----------------------------------|
|--5-5-5-5-5-5-7-7-7-7-7-7-8-8-8-8-|-----5-----------5-----------------|
|--5-5-5-5-5-5-7-7-7-7-7-7-8-8-8-8-|----------5/8---------5/8----5/8---|
|--3-3-3-3-3-3-5-5-5-5-5-5-6-6-6-6-|--0-----0------0----0------0-------|


|-----------------------------------|-----------------------------------|
|-----------------------------------|-----------------------------------|
|-----------------------------------|-----------------------------------|
|-----5-----------5-----------------|-----5-----------5-----------------|
|----------5/8---------5/8----5/8---|----------5/8---------5/8----5/8---|
|--0-----0------0----0------0-------|--0-----0------0----0------0-------|


|--------------------------------------|
|--------------------------------------|
|--------------------------------------|
|--8-8-8-8-8-8-9-9-9-9-9-9-10-10-10-10-|
|--8-8-8-8-8-8-9-9-9-9-9-9-10-10-10-10-|
|--6-6-6-6-6-6-7-7-7-7-7-7--8--8--8--8-|


Main
|--------------------------|
|--------------------------|
|--------0--------0--------|
|-----0--------0--------0--|
|--------------------------|
|--3--------4--------1-----|


|--------------------------|--------------------------|
|--------------------------|--------------------------|
|--0--------0-----0-----0--|--------0--------0--------|
|--------0-----------------|-----0--------0--------0--|
|--------------------------|--------------------------|
|-----6--------5-----4-----|--3--------6--------5-----|


|--------------------------|--------------------------|
|--------------------------|--------------------------|
|--0--------0-----0-----0--|--------0--------0--------|
|--------0-----------------|-----0--------0--------0--| 
|--------------------------|--------------------------|
|-----9--------8-----6-----|--3--------4--------1-----|


|--------------------------|--------------------------|
|--------------------------|--------------------------|
|--0--------0-----0-----0--|--------0--------0--------|
|--------0-----------------|-----0--------0--------0--|
|--------------------------|--------------------------|
|-----6--------5-----4-----|--3--------6--------5-----|


|----------------------------|-------------------6---8--|
|----------------------------|-------------------8--10--|
|--0---------0------0-----0--|-------0-----0-----0---0--|
|---------0------------------|----------0-----0---------|
|----------------------------|--------------------------|
|-----11--------10-----8-----|--3-----------------------|


|--10----6---8--10--------|
|--11----8--10--11--------|
|---0----0---0---0--------|
|-------------------------|
|-------------------------|
|-------------------------|


Pre-Verse
|-------------------|-----------------------------------------|
|-------------------|-----------------------------------------|
|-------------------|-----------------------------------------|
|--2----------------|--8----9~---(8)---8*~------<5>~-4~-------|
|--2----------------|------------------------------------5~---|
|--0----------------|-----------------------------------------|


|-------------------|-----------------------------------------|
|-------------------|-----------------------------------------|
|-------------------|-----------------------------------------|
|--2----------------|--8----9~---(8)---8*~------<5>~-4~--8~---|
|--2----------------|-----------------------------------------|
|--0----------------|-----------------------------------------|


Verse
|-----------------------------------|
|-----------------------------------|
|-----------------------------------|
|-----5-----------5-----------------|
|----------5/8---------5/8----5/8---|
|--0-----0------0----0------0-------|


|-----------------------------------|-----------------------------------|
|-----------------------------------|-----------------------------------|
|-----------------------------------|-----------------------------------|
|-----5-----------5-----------------|-----5-----------5-----------------|
|----------5/8---------5/8----5/8---|----------5/8---------5/8----5/8---|
|--0-----0------0----0------0-------|--0-----0------0----0------0-------|


|----------------------------------|-----------------------------------|
|----------------------------------|-----------------------------------|
|----------------------------------|-----------------------------------|
|--5-5-5-5-5-5-7-7-7-7-7-7-8-8-8-8-|-----5-----------5-----------------|
|--5-5-5-5-5-5-7-7-7-7-7-7-8-8-8-8-|----------5/8---------5/8----5/8---|
|--3-3-3-3-3-3-5-5-5-5-5-5-6-6-6-6-|--0-----0------0----0------0-------|


|-----------------------------------|-----------------------------------|
|-----------------------------------|-----------------------------------|
|-----------------------------------|-----------------------------------|
|-----5-----------5-----------------|-----5-----------5-----------------|
|----------5/8---------5/8----5/8---|----------5/8---------5/8----5/8---|
|--0-----0------0----0------0-------|--0-----0------0----0------0-------|


|--------------------------------------|-----------------------------------|
|--------------------------------------|-----------------------------------|
|--------------------------------------|-----------------------------------|
|--8-8-8-8-8-8-9-9-9-9-9-9-10-10-10-10-|-----5-----------5-----------------|
|--8-8-8-8-8-8-9-9-9-9-9-9-10-10-10-10-|----------5/8---------5/8----5/8---|
|--6-6-6-6-6-6-7-7-7-7-7-7--8--8--8--8-|--0-----0------0----0------0-------|


|-----------------------------------|-----------------------------------|
|-----------------------------------|-----------------------------------|
|-----------------------------------|-----------------------------------|
|-----5-----------5-----------------|-----5-----------5-----------------|
|----------5/8---------5/8----5/8---|----------5/8---------5/8----5/8---|
|--0-----0------0----0------0-------|--0-----0------0----0------0-------|


|----------------------------------|-----------------------------------|
|----------------------------------|-----------------------------------|
|----------------------------------|-----------------------------------|
|--5-5-5-5-5-5-7-7-7-7-7-7-8-8-8-8-|-----5-----------5-----------------|
|--5-5-5-5-5-5-7-7-7-7-7-7-8-8-8-8-|----------5/8---------5/8----5/8---|
|--3-3-3-3-3-3-5-5-5-5-5-5-6-6-6-6-|--0-----0------0----0------0-------|


|-----------------------------------|-----------------------------------|
|-----------------------------------|-----------------------------------|
|-----------------------------------|-----------------------------------|
|-----5-----------5-----------------|-----5-----------5-----------------|
|----------5/8---------5/8----5/8---|----------5/8---------5/8----5/8---|
|--0-----0------0----0------0-------|--0-----0------0----0------0-------|


|--------------------------------------|
|--------------------------------------|
|--------------------------------------|
|--8-8-8-8-8-8-9-9-9-9-9-9-10-10-10-10-|
|--8-8-8-8-8-8-9-9-9-9-9-9-10-10-10-10-|
|--6-6-6-6-6-6-7-7-7-7-7-7--8--8--8--8-|


Main
|--6---8--|--10--10-10-10--10--10-10-10--10-----|
|--8--10--|--11--11-11-11--11--11-11-11--11-----|
|--0---0--|---0---0-----0---0---0-----0---0--0--|
|---------|-------------------------------------|
|---------|-------------------------------------|
|---------|-------------------------------------|


|---8---8--8--8---8---8--8--8---8-----|--5--5-5-5--5--5-5-5--5--1--|
|--10--10-10-10--10--10-10-10--10-----|--6--6-6-6--6--6-6-6--6--3--|
|---0---0-----0---0---0-----0---0--0--|--0--0---0--0--0---0--0--0--|
|-------------------------------------|----------------------------|
|-------------------------------------|----------------------------|
|-------------------------------------|----------------------------|


|--3--3-3-3--3--3-3-3--6---8--|--10--10-10-10--10--10-10-10--10-----|
|--4--4-4-4--4--4-4-4--8--10--|--11--11-11-11--11--11-11-11--11-----|
|--0--0---0--0--0---0--0---0--|---0---0-----0---0---0-----0---0--0--|
|-----------------------------|-------------------------------------|
|-----------------------------|-------------------------------------|
|-----------------------------|-------------------------------------|


|---8---8--8--8---8---8--8--8---8-----|--5--5-5-5--5--5-5-5--5--1--|
|--10--10-10-10--10--10-10-10--10-----|--6--6-6-6--6--6-6-6--6--3--|
|---0---0-----0---0---0-----0---0--0--|--0--0---0--0--0---0--0--0--|
|-------------------------------------|----------------------------|
|-------------------------------------|----------------------------|
|-------------------------------------|----------------------------|


|--3--3-3-3--3--3-3-3--6---8--|--10--10-10-10--10--10-10-10--10-----|
|--4--4-4-4--4--4-4-4--8--10--|--11--11-11-11--11--11-11-11--11-----|
|--0--0---0--0--0---0--0---0--|---0---0-----0---0---0-----0---0--0--|
|-----------------------------|-------------------------------------|
|-----------------------------|-------------------------------------|
|-----------------------------|-------------------------------------|


|---8---8--8--8---8---8--8--8---8-----|--5--5-5-5--5--5-5-5--5--1--|
|--10--10-10-10--10--10-10-10--10-----|--6--6-6-6--6--6-6-6--6--3--|
|---0---0-----0---0---0-----0---0--0--|--0--0---0--0--0---0--0--0--|
|-------------------------------------|----------------------------|
|-------------------------------------|----------------------------|
|-------------------------------------|----------------------------|


|--3--3-3-3--3--3-3-3--6---8--|--10--10-10-10--10--10-10-10--10-----|
|--4--4-4-4--4--4-4-4--8--10--|--11--11-11-11--11--11-11-11--11-----|
|--0--0---0--0--0---0--0---0--|---0---0-----0---0---0-----0---0--0--|
|-----------------------------|-------------------------------------|
|-----------------------------|-------------------------------------|
|-----------------------------|-------------------------------------|


|---8---8--8--8---8---8--8--8---8-----|--10--10-10-10--10--10-10-10--10--10--|
|--10--10-10-10--10--10-10-10--10-----|--11--11-11-11--11--11-11-11--11--11--|
|---0---0-----0---0---0-----0---0--0--|---0---0-----0---0---0-----0---0---0--|
|-------------------------------------|--------------------------------------|
|-------------------------------------|--------------------------------------|
|-------------------------------------|--------------------------------------|


|--10--10-10-10--15---|
|--11--11-11-11--11---|
|---0---0-----0---0---|
|---------------------|
|---------------------|
|---------------------|


Bridge
|---------------------------|
|---------------------------|
|-------------0-------------|
|--0h-2------------2--------|
|-------2-------------------|
|----------0----------0--2--|


|-------------------------|-------------------------|--------------------------|
|-------------------------|-------------------------|--------------------------|
|-----------0-------------|-----------0-------------|--------0--------0-----0--|
|-----0----------0--------|-----2----------2-----2--|-----0--------0-----------|
|--------2----------2-----|--0-----0----------0-----|--1--------2--------3-----|
|--3-------------------3--|-------------------------|--------------------------|


|---------------------------|-------------------------|-------------------------|
|---------------------------|-------------------------|-------------------------|
|-------------0-------------|-----------0-------------|-----------0-------------|
|--0h-2------------2--------|-----0----------0--------|-----2----------2-----2--|
|-------2-------------------|--------2----------2-----|--0-----0----------0-----|
|----------0----------0--2--|--3-------------------3--|-------------------------|


|--------------------------|
|--------------------------|
|--------0--------0-----0--|
|-----0--------0-----------|
|--1--------2--------3-----|
|--------------------------|


Solo
Lead

|------------------------------------|------------------------------------|
|------------------------------------|------------------------------------|
|--------2----3---2-3~----5----3--5--|--5b*--5b*17r5*------5*~-------5*~--|
|--3--5------------------------------|---------------------------3--------|
|------------------------------------|------------------------------------|
|------------------------------------|------------------------------------|


|-------------------------------------------------------------------------------------|
|-------------------------------------------------------------------------------------|
|-------2-3-2-3~--5--3-5-5b*~---5*(17)tr-br5*-------------14-15-14-15~---17---15-17~--|
|--3-5----------------------------------------------15-17-----------------------------|
|-------------------------------------------------------------------------------------|
|-------------------------------------------------------------------------------------|


|----------------------------------------------------------|
|-------------------------------18------18-18--------------|
|--15-17-----17b--17-17b---17pb----17pb-------17pbr-18-17--|
|----------------------------------------------------------|
|----------------------------------------------------------|
|----------------------------------------------------------|


|--------------15----------------------15----------------18br~----|
|-----------------18-15-------------------18-15-------------------|
|--17-15-17-18----------18-17-15-17-18----------18-17-15----------|
|-----------------------------------------------------------------|
|-----------------------------------------------------------------|
|-----------------------------------------------------------------|


|--17pbr----15----------|-------------------------------------------------------------|
|---------------15~-----|-------------------------------------------------------------|
|-----------------------|---12~--11~---12~------12~--11~------12\-----12~--11~---12b--|
|-----------------------|---13---12----13-------13---12-------13\-----13---12----13b--|
|-----------------------|-------------------------------------------------------------|
|-----------------------|-------------------------------------------------------------|


|----------------------------------------------15----------15---------------|
|-------------------------------------------------15----------15------------|
|-----------------8-----10b------------------x-------14b---------14pbr—12~--|
|-15b~----15-----13-----15b----15-13---------x------------------------------|
|------------------------------------15-14~---------------------------------|
|---------------------------------------------------------------------------|


|---------------------------------15b~---15b~---15b~---15b~-------15pbr-----|
|--15brb~---15pbr--12----12~------------------------------------------------|
|---------------------14----------------------------------------------------|
|---------------------------------------------------------------------------|
|---------------------------------------------------------------------------|
|---------------------------------------------------------------------------|


|--12h15p12h-15-15-----12------------------------------------------|
|------------------15b----15b---15-12-15-15-12---------------------|
|----------------------------------------------16-15-14-12---12br--|
|------------------------------------------------------------------|
|------------------------------------------------------------------|
|------------------------------------------------------------------|


|--/10----10----12----12----12~----17~--|---12----19----19b~-------|
|------12----12----12----12-------------|------15----15------------|
|---------------------------------------|--------------------------|
|---------------------------------------|--------------------------|
|---------------------------------------|--------------------------|
|---------------------------------------|--------------------------|


Rhythm

|--1----1--1----1------|--1----1--1----1------|--3----3--3----3------|
|--1----1--1----1------|--1----1--1----1------|--3----3--3----3------|
|--2----2--2----2------|--2----2--2----2------|--3----3--3----3------|
|--3----3--3----3------|--3----3--3----3------|--5----5--5----5------|
|--3----3--3----3------|--3----3--3----3------|--5----5--5----5------|
|--1----1--1----1------|--1----1--1----1------|--3----3--3----3------|


|--3----3--3----3------|--1----1--1----1------|--1----1--1----1------|
|--3----3--3----3------|--1----1--1----1------|--1----1--1----1------|
|--3----3--3----3------|--2----2--2----2------|--2----2--2----2------|
|--5----5--5----5------|--3----3--3----3------|--3----3--3----3------|
|--5----5--5----5------|--3----3--3----3------|--3----3--3----3------|
|--3----3--3----3------|--1----1--1----1------|--1----1--1----1------|


|--3----3--3----3------|--3----3--3----3------|--1----1--1----1------|
|--3----3--3----3------|--3----3--3----3------|--1----1--1----1------|
|--3----3--3----3------|--3----3--3----3------|--2----2--2----2------|
|--5----5--5----5------|--5----5--5----5------|--3----3--3----3------|
|--5----5--5----5------|--5----5--5----5------|--3----3--3----3------|
|--3----3--3----3------|--3----3--3----3------|--1----1--1----1------|


|--1----1--1----1------|--3----3--3----3------|--3----3--3----3------|
|--1----1--1----1------|--4----4--4----4------|--4----4--4----4------|
|--2----2--2----2------|--5----5--5----5------|--4----4--4----4------|
|--3----3--3----3------|--5----5--5----5------|--5----5--5----5------|
|--3----3--3----3------|--3----3--3----3------|--3----3--3----3------|
|--1----1--1----1------|----------------------|----------------------|


|--3----3--3----3------|--1----1--1----1------|--4----4--4----4------|
|--4----4--4----4------|--1----1--1----1------|--4----4--4----4------|
|--3----3--3----3------|--2----2--2----2------|--5----5--5----5------|
|--5----5--5----5------|--3----3--3----3------|--6----6--6----6------|
|--3----3--3----3------|--3----3--3----3------|--6----6--6----6------|
|----------------------|----------------------|--4----4--4----4------|


|--4----4--4----4------|--3----3--3----3------|--3----3--3----3------|
|--4----4--4----4------|--3----3--3----3------|--3----3--3----3------|
|--5----5--5----5------|--4----4--4----4------|--4----4--4----4------|
|--6----6--6----6------|--5----5--5----5------|--5----5--5----5------|
|--6----6--6----6------|--5----5--5----5------|--5----5--5----5------|
|--4----4--4----4------|--3----3--3----3------|--3----3--3----3------|


Main
|--6---8--|--10--10-10-10--10--10-10-10--10-----|
|--8--10--|--11--11-11-11--11--11-11-11--11-----|
|--0---0--|---0---0-----0---0---0-----0---0--0--|
|---------|-------------------------------------|
|---------|-------------------------------------|
|---------|-------------------------------------|


|---8---8--8--8---8---8--8--8---8-----|--5--5-5-5--5--5-5-5--5--1--|
|--10--10-10-10--10--10-10-10--10-----|--6--6-6-6--6--6-6-6--6--3--|
|---0---0-----0---0---0-----0---0--0--|--0--0---0--0--0---0--0--0--|
|-------------------------------------|----------------------------|
|-------------------------------------|----------------------------|
|-------------------------------------|----------------------------|


|--3--3-3-3--3--3-3-3--6---8--|--10--10-10-10--10--10-10-10--10-----|
|--4--4-4-4--4--4-4-4--8--10--|--11--11-11-11--11--11-11-11--11-----|
|--0--0---0--0--0---0--0---0--|---0---0-----0---0---0-----0---0--0--|
|-----------------------------|-------------------------------------|
|-----------------------------|-------------------------------------|
|-----------------------------|-------------------------------------|


|---8---8--8--8---8---8--8--8---8-----|--5--5-5-5--5--5-5-5--5--1--|
|--10--10-10-10--10--10-10-10--10-----|--6--6-6-6--6--6-6-6--6--3--|
|---0---0-----0---0---0-----0---0--0--|--0--0---0--0--0---0--0--0--|
|-------------------------------------|----------------------------|
|-------------------------------------|----------------------------|
|-------------------------------------|----------------------------|


|--3--3-3-3--3--3-3-3--6---8--|--10--10-10-10--10--10-10-10--10-----|
|--4--4-4-4--4--4-4-4--8--10--|--11--11-11-11--11--11-11-11--11-----|
|--0--0---0--0--0---0--0---0--|---0---0-----0---0---0-----0---0--0--|
|-----------------------------|-------------------------------------|
|-----------------------------|-------------------------------------|
|-----------------------------|-------------------------------------|


|---8---8--8--8---8---8--8--8---8-----|--5--5-5-5--5--5-5-5--5--1--|
|--10--10-10-10--10--10-10-10--10-----|--6--6-6-6--6--6-6-6--6--3--|
|---0---0-----0---0---0-----0---0--0--|--0--0---0--0--0---0--0--0--|
|-------------------------------------|----------------------------|
|-------------------------------------|----------------------------|
|-------------------------------------|----------------------------|


|--3--3-3-3--3--3-3-3--6---8--|--10--10-10-10--10--10-10-10--10-----|
|--4--4-4-4--4--4-4-4--8--10--|--11--11-11-11--11--11-11-11--11-----|
|--0--0---0--0--0---0--0---0--|---0---0-----0---0---0-----0---0--0--|
|-----------------------------|-------------------------------------|
|-----------------------------|-------------------------------------|
|-----------------------------|-------------------------------------|


|---8---8--8--8---8---8--8--8---8-----|--10--10-10-10--10--10-10-10--10--10--|
|--10--10-10-10--10--10-10-10--10-----|--11--11-11-11--11--11-11-11--11--11--|
|---0---0-----0---0---0-----0---0--0--|---0---0-----0---0---0-----0---0---0--|
|-------------------------------------|--------------------------------------|
|-------------------------------------|--------------------------------------|
|-------------------------------------|--------------------------------------|


|--10--10-10-10--15---|
|--11--11-11-11--11---|
|---0---0-----0---0---|
|---------------------|
|---------------------|
|---------------------|


Interlude
|--------------------------|
|--------------------------|
|--------0--------0--------|
|-----0--------0--------0--|
|--------------------------|
|--3--------4--------1-----|


|--------------------------|--------------------------|
|--------------------------|--------------------------|
|--0--------0-----0-----0--|--------0--------0--------|
|--------0-----------------|-----0--------0--------0--|
|--------------------------|--------------------------|
|-----6--------5-----4-----|--3--------6--------5-----|


|--------------------------|--------------------------|
|--------------------------|--------------------------|
|--0--------0-----0-----0--|--------0--------0--------|
|--------0-----------------|-----0--------0--------0--| 
|--------------------------|--------------------------|
|--L--9--------8-----6-----|--3--------4--------1-----|


|--------------------------|--------------------------|
|--------------------------|--------------------------|
|--0--------0-----0-----0--|--------0--------0--------|
|--------0-----------------|-----0--------0--------0--|
|--------------------------|--------------------------|
|-----6--------5-----4-----|--3--------6--------5-----|


|----------------------------|-------------------6---8--|
|----------------------------|-------------------8--10--|
|--0---------0------0-----0--|-------0-----0-----0---0--|
|---------0------------------|----------0-----0---------|
|----------------------------|--------------------------|
|-----11--------10-----8-----|--3-----------------------|


|--10----6---8--10--------|
|--11----8--10--11--------|
|---0----0---0---0--------|
|-------------------------|
|-------------------------|
|-------------------------|


   



Tablature Legend
----------------
X   - dead note
(n) - ghost note
>   - accentuded note
NH  - natural harmonic
*   - pinch harmonic
h   - hammer on
p   - pull off
b   - bend
br  - bendRelease
pb  - preBend
pbr - preBendRelease
brb - bendReleaseBend
S   - shift slide
s   - legato slide
/   - slide into from below or out of upwards
\   - slide into from above or out of downwards
~   - vibrato
tr  - tremolo picking
T   - tapping





Comments


Popular Pantera tabs & chords
Cowboys From Hell 2 Bass Tabs
Fucking Hostile Bass Tabs
I Can't Hide 1 Bass Tabs
25 Years 1 Tabs
Down Below Intro Tabs
Floods 1 Tabs
Fucking Hostile 1 Tabs
God Damn Electric Tabs
Hellbound Tabs
Psycho Holiday 1 Tabs


Song lyrics



↑ Back to top | Tablatures and chords are parodies/interpretations of the original songs. You may use it for private study, scholarship, research or language learning purposes only
© 2014 AZChords.com Contact us | Privacy policy | DMCA | Add/correct tabs | Request tabs | Top 50 tabs