>
 >
5 Minutes Alone

5 Minutes Alone Guitar Tabs

Pantera - 5 Minutes Alone chords, tabs, tablatures, lyrics

Guitar lessons | Add/correct | Request | Top 50 tabs Artists:  A B C D E F G H I J K L M N O P Q R S T U V W X Y Z 0-9

5 Minutes Alone Guitar Tabs – Pantera

CD, Sheet music, Poster

Do you like 5 Minutes Alone? Share with your friends now
Bass TabsBass Tabs v2TabsTabs v2Tabs v3
#------------------------------------------------------------------------------##

                                 5 MINUTES ALONE
                             As recorded by Pantera
                     (From the 1994 Album FAR BEYOND DRIVEN)

Words and Music by Pantera
Arranged by Pantera


          G5                   A5                   E5                   Bb5
      3 5 5 x x x          5 7 7 x x x          0 2 2 x x x          6 8 8 x x x

         Eb5/E                  C                   Bb                    G
      0 1 1 x x x          x x x 5 5 x          x x x 3 3 x          x x x 0 0 x

          Eb                   C#                    F                   F5
      x x x 8 8 x          x x x 6 6 x         x x x 10 10 x         1 3 3 x x x

         Bb5I                  F#5              E5(type 2)              G5/D
      x 1 3 3 x x          2 4 4 x x x          0 2 2 4 x x          x 5 5 7 x x

         A5/E                 Bb5/F             F5(type 2)               G#5
      x 7 7 9 x x          x x 3 3 6 x          1 3 3 5 x x          4 6 6 x x x

         Bb5/C
      x x x 5 6 6

Gtr I (D G C F A D) - 'Rhythm Guitar'
Gtr II (D G C F A D) - 'Pick Scrapes'
Gtr III (D G C F A D) - 'Solo Guitar'
Gtr IV (D G C F) - 'Untitled'

 Intro
  Moderate Rock Q=96
             G5A5E5  G5A5E5
 4/4        4/4
           Gtr I
  W          S S E E S S E E S E S
|----------|-----------------------|
|----------|-----------------------|
|----------|-----------------------|
|----------|-----------------------|
|----------|-5s7-2-x-5s7-2---x-x-2-|
|----------|-3s5-0-x-3s5-0---x-x-0-|
|
|          Gtr IV
| W          S S E E S S E E S E S
|----------|-----------------------|
|----------|-----------------------|
|----------|-----------------------|
|----------|-3s5-0-x-3s5-0---x-x-0-|


  G5A5E5  BbG5E5            G5A5E5  G5A5E5
  S S E E S S E S S S E S   S S E E S S E E S E S
|-------------------------|--------------------------|
|-------------------------|--------------------------|
|-------------------------|--------------------------|
|-------------------------|--------------------------|
|-5s7-2-x-8s5-2---x-x-x-2-|-5s7-2-x-5s7-2---x-x-2----|
|-3s5-0-x-6s3-0---x-x-x-0-|-3s5-0-x-3s5-0---x-x-0----|
|
| S S E E S S E S S S E S   S S E E S S E E S E S
|-------------------------|--------------------------|
|-------------------------|--------------------------|
|-------------------------|--------------------------|
|-3s5-0-x-6s3-0---x-x-x-0-|-3s5-0-x-3s5-0---x-x-0----|


  G5A5E5  BbG5E5          G5A5E5  G5A5E5
  S S E E S S E E S E S   S S E E S S E S S S E S
|-----------------------|-------------------------|
|-----------------------|-------------------------|
|-----------------------|-------------------------|
|-----------------------|-------------------------|
|-5s7-2-x-8s5-2-x-x-x-2-|-5s7-2-x-5s7-2---x-x-x-2-|
|-3s5-0-x-6s3-0-x-x-x-0-|-3s5-0-x-3s5-0---x-x-x-0-|
|
| S S E E S S E E S E S   S S E E S S E S S S E S
|-----------------------|-------------------------|
|-----------------------|-------------------------|
|-----------------------|-------------------------|
|-3s5-0-x-6s3-0-x-x-x-0-|-3s5-0-x-3s5-0---x-x-x-0-|


  G5A5E5  BbG5E5            G5A5E5  G5A5E5
  S S E E S S E S S S E S   S S E E S S E S S S E S
|-------------------------|-------------------------|
|-------------------------|-------------------------|
|-------------------------|-------------------------|
|-------------------------|-------------------------|
|-5s7-2-x-8s5-2---x-x-x-2-|-5s7-2-x-5s7-2---x-x-x-2-|
|-3s5-0-x-6s3-0---x-x-x-0-|-3s5-0-x-3s5-0---x-x-x-0-|
|
| S S E E S S E S S S E S   S S E E S S E S S S E S
|-------------------------|-------------------------|
|-------------------------|-------------------------|
|-------------------------|-------------------------|
|-3s5-0-x-6s3-0---x-x-x-0-|-3s5-0-x-3s5-0---x-x-x-0-|


  G5A5E5  BbG5E5          N.C.
  S S E E S S E E S E S    E S S S S S S S S S S S S S S
|-----------------------|---------------------------------||
|-----------------------|---------------------------------||
|-----------------------|---------------------------------||
|-----------------------|----9----------------------------||
|-5s7-2-x-8s5-2-x-x-x-x-|-/9---9-8-7s5---5-----4-----2----||
|-3s5-0-x-6s3-0-x-x-x-x-|--------------7---5s3---3s1---1--||
|
| S S E E S S S E S E S    E S S S S S S S S S S S S S S
|-----------------------|---------------------------------||
|-----------------------|----9----------------------------||
|-----------------------|-/9---9-8-7s5---5-----4-----2----||
|-3s5-0-x-6s3-0-x-x-x-x-|--------------7---5s3---3s1---1--||


   Verse 1 & 2
    $
      E5
      PM--------|             PM--------|
    E E E E E S S S S S S   E E E E E S S S S S S
||------------------------|-----------------------|
||o-----------------------|-----------------------|
||------------------------|-----------------------|
||----2-2-2-2-2-2---2-2-2-|---2-2-2-2-2-2---2-2-2-|
||o---2-2-2-2-2-2---2-2-2-|---2-2-2-2-2-2---2-2-2-|
||----0-0-0-0-0-0---0-0-0-|---0-0-0-0-0-0---0-0-0-|
|
|   E E E E E S S S S S S   E E E E E S S S S S S
||------------------------|-----------------------|
||o-----------------------|-----------------------|
||o-----------------------|-----------------------|
||----0-0-0-0-0-0---0-0-0-|---0-0-0-0-0-0---0-0-0-|


    Eb5/E
    PM--------|             PM--------|
  E E E E E S S S S S S   E E E E E S S S S S S
|-----------------------|---------------------------||
|-----------------------|--------------------------o||
|-----------------------|---------------------------||
|---1-1-1-1-1-1---1-1-1-|---1-1-1-1-1-1---1-1-1-----||
|---1-1-1-1-1-1---1-1-1-|---1-1-1-1-1-1---1-1-1----o||
|---0-0-0-0-0-0---0-0-0-|---0-0-0-0-0-0---0-0-0-----||
|
| E E E E E S S S S S S   E E E E E S S S S S S
|-----------------------|---------------------------||
|-----------------------|--------------------------o||
|-----------------------|--------------------------o||
|---0-0-0-0-0-0---0-0-0-|---0-0-0-0-0-0---0-0-0-----||


  N.C.
  E  E E E +S  a   +E. Q      E  E E E +S  a   +E. Q
|---------------------------|---------------------------|
|---------------------------|---------------------------|
|---------------------------|---------------------------|
|------5---------------7b9--|------5---------------7b9--|
|---/8---6-(6)--------------|---/8---6-(6)--------------|
|-0------------4b6r(4)------|-0------------4b6r(4)------|
|
| E  E E E +S  a   +E. Q      E  E E E +S  a   +E. Q
|---------------------------|---------------------------|
|------5---------------7b9--|------5---------------7b9--|
|---/8---6-(6)--------------|---/8---6-(6)--------------|
|-0------------4b6r(4)------|-0------------4b6r(4)------|


  E  E E E +S  a   +E. Q      E  E E E +S   E.  +Q
|---------------------------|-------------------------||
|---------------------------|-------------------------||
|---------------------------|-------------------------||
|------5---------------7b9--|------5------------------||
|---/8---6-(6)--------------|---/8---6-(6)------------||
|-0------------4b6r(4)------|-0-------------4b6r(4)\--||
|
| E  E E E +S  a   +E. Q      E  E E E +S   E.  +E
|---------------------------|-------------------------||
|------5---------------7b9--|------5------------------||
|---/8---6-(6)--------------|---/8---6-(6)------------||
|-0------------4b6r(4)------|-0-------------4b6r(4)\--||


 Pre-Chorus
    E5
    PM--------|             PM--------|
  E E E E E S S S S S S   E E E E E S S S S S S
|-----------------------|-----------------------|
|-----------------------|-----------------------|
|-----------------------|-----------------------|
|---2-2-2-2-2-2---2-2-2-|---2-2-2-2-2-2---2-2-2-|
|---2-2-2-2-2-2---2-2-2-|---2-2-2-2-2-2---2-2-2-|
|---0-0-0-0-0-0---0-0-0-|---0-0-0-0-0-0---0-0-0-|
|
| E E E E E S S S S S S   E E E E E S S S S S S
|-----------------------|-----------------------|
|-----------------------|-----------------------|
|-----------------------|-----------------------|
|---0-0-0-0-0-0---0-0-0-|---0-0-0-0-0-0---0-0-0-|


  N.C.          G5A5E5    G5A5E5        N.C.
   ~~~~~~~~~~
   H    Q  Q    S S E S S S S E S S S E S
|-------------|-----------------------------|
|-------------|-----------------------------|
|-------------|-----------------------------|
|-------------|-----------------------------|
|-------------|-5s7-2-x-x-5s7-2---x-x-x-----|
|-/7----2--1--|-3s5-0-x-x-3s5-0---x-x-x-3s==|
|
|  ~~~~~~~~~~
|  H    Q  Q    S S E S S S S E S S S E S
|-------------|-----------------------------|
|-------------|-----------------------------|
|-------------|-----------------------------|
|--7----2--1--|-3s5-0-x-x-3s5-0---0-0-0-3s==|


               G5A5E5    G5A5E5        N.C.
  ~~~~~~~~~~
  H    Q  Q    S S E S S S S E S S S E S
|------------|---------------------------|
|------------|---------------------------|
|------------|---------------------------|
|------------|---------------------------|
|------------|-5s7-2-x-x-5s7-2---x-x-x---|
|-7----6--1--|-3s5-0-x-x-3s5-0---x-x-x-3s|
|
| ~~~~~~~~~~
| H    Q  Q    S S S S S S S S   S S S S
|------------|---------------------------|
|------------|---------------------------|
|------------|---------------------------|
|-7----6--1--|-3s5-0-x-x-3s5-0---x-x-x-3s|


               G5A5E5    G5A5E5        N.C.
  ~~~~~~~~~~
  H    Q  Q    S S E S S S S E S S S E S
|------------|------------------------------|
|------------|------------------------------|
|------------|------------------------------|
|------------|------------------------------|
|------------|-5s7-2-x-x-5s7-2---x-x-x------|
|-7----6--5--|-3s5-0-x-x-3s5-0---x-x-x-3s===|
|
| ~~~~~~~~~~
| H    Q  Q    S S E S S S S E S S S E S
|------------|------------------------------|
|------------|------------------------------|
|------------|------------------------------|
|-7----6--5--|-3s5-0-x-x-3s5-0---x-x-x-3s===|


               Chorus
                G5A5E5  G5A5E5
  H    Q  Q     S S E E S S E S S S E S
|------------||-------------------------|
|------------||-------------------------|
|------------||-------------------------|
|------------||-------------------------|
|------------||-5s7-2-x-5s7-2---x-x-x-2-|
|-7----2--1--||-3s5-0-x-3s5-0---x-x-x-0-|
|
| H    Q  Q     S S E E S S E S S S E S
|------------||-------------------------|
|------------||-------------------------|
|------------||-------------------------|
|-7----2--1--||-3s5-0-x-3s5-0---x-x-x-0-|


  G5A5E5  BbG5E5            G5A5E5  G5A5E5
  S S E E S S E S S S E S   S S E E S S E S S S E S
|-------------------------|-------------------------|
|-------------------------|-------------------------|
|-------------------------|-------------------------|
|-------------------------|-------------------------|
|-5s7-2-x-8s5-2---x-x-x-2-|-5s7-2-x-5s7-2---x-x-x-2-|
|-3s5-0-x-6s3-0---x-x-x-0-|-3s5-0-x-3s5-0---x-x-x-0-|
|
| S S E E S S E S S S E S   S S E E S S E S S S E S
|-------------------------|-------------------------|
|-------------------------|-------------------------|
|-------------------------|-------------------------|
|-3s5-0-x-6s3-0---x-x-x-0-|-3s5-0-x-3s5-0---x-x-x-0-|


  G5A5E5  BbG5E5          G5A5E5  G5A5E5
  S S E E S S E E S E S   S S E E S S E S S S E S
|-----------------------|-------------------------|
|-----------------------|-------------------------|
|-----------------------|-------------------------|
|-----------------------|-------------------------|
|-5s7-2-x-8s5-2-x-x-x-x-|-5s7-2-x-5s7-2---x-x-x-2-|
|-3s5-0-x-6s3-0-x-x-x-x-|-3s5-0-x-3s5-0---x-x-x-0-|
|
| S S E E S S E E S E S   S S E E S S E S S S E S
|-----------------------|-------------------------|
|-----------------------|-------------------------|
|-----------------------|-------------------------|
|-3s5-0-x-6s3-0-x-x-x-x-|-3s5-0-x-3s5-0---x-x-x-0-|


  G5A5E5  BbG5E5            G5A5E5  G5A5E5
  S S E E S S E S S S E S   S S E E S S E S S S E S
|-------------------------|-------------------------|
|-------------------------|-------------------------|
|-------------------------|-------------------------|
|-------------------------|-------------------------|
|-5s7-2-x-8s5-2---x-x-x-2-|-5s7-2-x-5s7-2---x-x-x-2-|
|-3s5-0-x-6s3-0---x-x-x-0-|-3s5-0-x-3s5-0---x-x-x-0-|
|
| S S E E S S E S S S E S   S S E E S S E S S S E S
|-------------------------|-------------------------|
|-------------------------|-------------------------|
|-------------------------|-------------------------|
|-3s5-0-x-6s3-0---x-x-x-0-|-3s5-0-x-3s5-0---x-x-x-0-|


                                                     D.S.
  G5A5E5  BbG5E5          N.C.
  S S E E S S E E S E S    E S S S S S S S S S S S S S S
|-----------------------|---------------------------------|
|-----------------------|---------------------------------|
|-----------------------|---------------------------------|
|-----------------------|----9----------------------------|
|-5s7-2-x-8s5-2-x-x-x-x-|-/9---9-8-7s5---5-----4-----2----|
|-3s5-0-x-6s3-0-x-x-x-x-|--------------7---5s3---3s1---1--|
|
| S S E E S S E E S E S    E S S S S S S S S S S S S S S
|-----------------------|---------------------------------|
|-----------------------|----9----------------------------|
|-----------------------|-/9---9-8-7s5---5-----4-----2----|
|-3s5-0-x-6s3-0-x-x-x-x-|--------------7---5s3---3s1---1--|


    N.C.                                   N.C.
     E S S S S S S S S S S S S S S  3x      E S S S S S S S S S S S S S S  3x
||----------------------------------||-||----------------------------------||
||o--------------------------------o||-||o--------------------------------o||
||----------------------------------||-||----------------------------------||
||-----9----------------------------||-||----------------------------------||
||o-/9---9-8-7s5---5-----4-----2---o||-||o----5---------5-----4-----3-----o||
||---------------7---5s3---3s1---1--||-||--/7---7-6-5s4---4s3---3s2---2s1--||
|
|    E S S S S S S S S S S S S S S  3x      E S S S S S S S S S S S S S S  3x
||----------------------------------||-||----------------------------------||
||o----9---------------------------o||-||o--------------------------------o||
||o-/9---9-8-7s5---5-----4-----2---o||-||o----5---------5-----4-----3-----o||
||---------------7---5s3---3s1---1--||-||--/7---7-6-5s4---4s3---3s2---2s1--||


  N.C.           A5G#5 G5  F#5 F5  G5A5E5  G5A5E5
   E S S S S S S S S S S S S S S   S S E E S S E S S S E S
|--------------------------------|-------------------------|
|--------------------------------|-------------------------|
|--------------------------------|-------------------------|
|--------------------------------|-------------------------|
|----5---------5-7s6-6s5-5s4-4s3-|-5s7-2-x-5s7-2---x-x-x-2-|
|-/7---7-6-5-4---5s4-4s3-3s2-2s1-|-3s5-0-x-3s5-0---x-x-x-0-|
|
|  E S S S S S S S S S S S S S S   S S E E S S E S S S E S
|--------------------------------|-------------------------|
|--------------------------------|-------------------------|
|----5---------5-----------------|-------------------------|
|-/7---7-6-5-4---5s4-4s3-3s2-2s1-|-3s5-0-x-3s5-0---x-x-x-0-|


  G5A5E5  BbG5
              Gtr II
              PM----------------|
              |----6----| |-3-|
  S S E E S S S S S S S S S S S E
|-----------------------------------|
|-----------------------------------|
|-------------x-x-x-x-x-x-x-x-x-x---|
|-------------x-x-x-x-x-x-x-x-x-x---|
|-5s7-2-x-8s5-----------------------|
|-3s5-0-x-5s3-----------------------|
|
| S S E E S S   H
|-----------------------------------|
|-----------------------------------|
|-----------------------------------|
|-3s5-0-x-5s3-----------------------|


  G5A5E5  G5A5E5            G5A5E5  BbG5E5
  Gtr I
  S S E E S S E S S S E S   S S E E S S E E S E S
|-------------------------|-----------------------|
|-------------------------|-----------------------|
|-------------------------|-----------------------|
|-------------------------|-----------------------|
|-5s7-2-x-5s7-2---x-x-x-2-|-5s7-2-x-8s5-2-x-x-x-x-|
|-3s5-0-x-3s5-0---x-x-x-0-|-3s5-0-x-6s3-0-x-x-x-x-|
|
| S S E E S S E S S S E S   S S E E S S E E S E S
|-------------------------|-----------------------|
|-------------------------|-----------------------|
|-------------------------|-----------------------|
|-3s5-0-x-3s5-0---x-x-x-0-|-3s5-0-x-6s3-0-x-x-x-x-|


                    Interlude
                     C       BbC     Bb  C       BbC       BbG
  \1.5______/
  H        +H        S   +S  S S  S  S S S   +S  S S S S S S  S
|-----------------||---------------------------------------------|
|-----------------||-5b6r(5)p3-5-----3---5b6r(5)p3-5---5-5-3-(0)-|
|-----------------||-5b6r(5)p3-5-----3---5b6r(5)p3-5---5-5-3-(0)-|
|-----------------||---------------------------------------------|
|-----------------||---------------------------------------------|
|-0--------(0)----||---------------------------------------------|
|
| W                  S   +S  S S +S  E S S   +S  E     S S S  S
|-----------------||---------------------------------------------|
|-----------------||---------------------------------------3h=5--|
|-----------------||-3b4r(3)-1-3-(3)-1---3b4r(3)-1-----3s5-------|
|-0---------------||-------------------3-------------------------|


  C       BbC     Bb5     N.C.                  Eb      C#Eb    C#N.C.
  Gtr I
                                        ~~~                                           ~~~~
  S   +S  S S  S  S E     S    S  E   S E.      S   +S  S S  S  S E      S   S E    S E.
|-------------------------------------6-------|-------------------------------------9----------|
|-5b6r(5)p3-5-----3-------6-------6b8---6b8---|-8b9r(8)p6-8-----6--------9-----9b11---9b11-----|
|-5b6r(5)p3-5-----3-5b7--------5--------------|-8b9r(8)p6-8-----6-8b10-------8-----------------|
|---------------------------------------------|------------------------------------------------|
|---------------------------------------------|------------------------------------------------|
|---------------------------------------------|------------------------------------------------|
|
| S   +S  S S +S  E     S S   +S  E   S S   E   S    S  S S +S  E      S S   S E    S S    S S
|---------------------------------------------|------------------------------------------------|
|-------------------------------------------3-|--------------------------------------------6h8-|
|-3b4r(3)-1-3-(3)-1-------3b4r(3)-1---3s5-----|-6b7r=6--4-6-(6)-4--------6b7r6-4----6s8--------|
|-----------------------3---------------------|------------------------6-----------------------|
|
| Gtr III
| W                                             W
|---------------------------------------------|------------------------------------------------|
|---------------------------------------------|------------------------------------------------|
|---------------------------------------------|------------------------------------------------|
|---------------------------------------------|------------------------------------------------|
|---------------------------------------------|------------------------------------------------|
|---------------------------------------------|------------------------------------------------|


  Eb        C#Eb     C#
  E     +S  S  S  S    S  S    S   S S S S S   E
|--------------------------------------------------||
|-8b9r==(8)p6--8-------6/--------------------------||
|-8b9r==(8)p6--8-------6/--------------------------||
|--------------------------------------------------||
|-------------------------x----x---x-x-x-x-x-------||
|-------------------------x----x---x-x-x-x-x-/17\--||
|
| S   S  S  S +S  E       S              H
|--------------------------------------------------||
|--------------------------------------------------||
|-6b7r6--4--6-(6)-4/-------------------------------||
|--------------------------------------------------||
|
| Q            E       E      +H
|--------------------[19]---([19])-----------------||
|--------------------------------------------------||
|--------------------------------------------------||
|--------------------------------------------------||
|--------------------------------------------------||
|--------------------------------------------------||


 Guitar Solo
  Gtr III
    TP                       TP                    TP        TP                 TP
   +H                       +H                    +E        +H                 +Q.
|-(19)b22==================(19)----------------|-(19)r=====(19)b22============(19)-----------|
|----------------------------------------------|---------------------------------------------|
|----------------------------------------------|---------------------------------------------|
|----------------------------------------------|---------------------------------------------|
|----------------------------------------------|---------------------------------------------|
|----------------------------------------------|---------------------------------------------|
|
|   S      +S  S S +S  E S   S   +S  E S S S S     S   +S    S      E E S S S   S  S S S S S
|----------------------------------------------|---------------------------------------------|
|----------------------------------------------|---------------------------------------------|
|------------------------------------------5h7-|--------------------------5s7---5------------|
|---5b6r===(5)-3-5-(5)-3-0---5b6r(5)-3-5s7-----|---5b6r(5)---3------5-3-0----------7-6-5-3-0-|


    TP                  TP     TP
   +Q.                 +E     +H
|-(19)r===============(19)---(19)b22-----------------|
|----------------------------------------------------|
|----------------------------------------------------|
|----------------------------------------------------|
|----------------------------------------------------|
|----------------------------------------------------|
|
|   S   +S  S S +S  E      S   S     +S  E S S S S
|----------------------------------------------------|
|----------------------------------------------------|
|----------------------------------------------5h7---|
|---5b6r(5)-3-5-(5)-3------0---5b6r==(5)-3-5s7-------|


  Gtr III
    ~~~~~~
    H                    S     S  S  S  S  S  E
|-(19)------------------19b22-19-18-17----17---------|
|--19----------------------------------20----20b22r==|
|----------------------------------------------------|
|----------------------------------------------------|
|----------------------------------------------------|
|----------------------------------------------------|
|
|   S   +S  S S +S  E S  H
|----------------------------------------------------|
|----------------------------------------------------|
|----------------------------------------------------|
|---5b6r(5)-3-5-(5)-3-0------------------------------|
|
| Gtr II
|                     TP TP    TP TP TP TP TP TP   TP
|   Q..               S  S     S  S  S  S  S  S    S
|----------------------------------------------------|
|----------------------------------------------------|
|----------------------------------------------------|
|----------------------------------------------------|
|---------------------xs=xs====xs=xs=xs=xs=xs=xs===x-|
|---------------------xs=xs====xs=xs=xs=xs=xs=xs===x-|


  C         Bb      CBbC        Bb            C           BbG     Eb        EbC# Eb      C#  Eb           C#  Bb
                     ~~~~~~~
   +E        +S      S  +Q           +E        +E       Q           +W
|-----------------------------------------------------[19]------|-([19])-------------------------------------------|
|-(20)------(20)b21-17-(17)---------(17)------(17)\-------------|--------------------------------------------------|
|---------------------------------------------------------------|--------------------------------------------------|
|---------------------------------------------------------------|--------------------------------------------------|
|---------------------------------------------------------------|--------------------------------------------------|
|---------------------------------------------------------------|--------------------------------------------------|
|
|   S   +S    S      S  +S  E   S     S   +S    E       S S S S      S    S  S S +S  E   S    S   S E   S  S  S S
|---------------------------------------------------------------|--------------------------------------------------|
|-----------------------------------------------------------3h5-|---------------------------------------------6h8--|
|---3b4r(3)---1------3--(3)-1---------3b4r(3)---1-------3s5-----|----6b7r=6--4-6-(6)-4--------6b7r6-4---6s=8-------|
|-------------------------------3-------------------------------|------------------------6-------------------------|
|
|                   Gtr I
|   S   +S    S      S   S  S S S    +S    S    S   S   S S S S      S   +S  S S  S  S S S   +S   S S S S +S  S S
|---------------------------------------------------------------|--------------------------------------------------|
|---5b6r(5)p==3------5------3---5b6r=(5)p==3----5-------5-5-3-0-|----8b9r(8)p6-8-----6---8b9r(8)p=6-8---8-(8)-6-3--|
|---5b6r(5)p==3------5------3---5b6r=(5)p==3----5-------5-5-3-0-|----8b9r(8)p6-8-----6---8b9r(8)p=6-8---8-(8)-6-3--|
|---------------------------------------------------------------|--------------------------------------------------|
|---------------------------------------------------------------|--------------------------------------------------|
|---------------------------------------------------------------|--------------------------------------------------|


  F    EF      Eb     F               Eb  F          EbC
   W
|---------------------------------------------------------|
|---------------------------------------------------------|
|---------------------------------------------------------|
|---------------------------------------------------------|
|---------------------------------------------------------|
|---------------------------------------------------------|
|
|  S     +S  S  S +S  E    S      S   +S   E    S  S S  S
|---------------------------------------------------------|
|----------------------------------------------------8h10-|
|--8b9r==(8)-6--8-(8)-6-----------8b9r(8)--6----8s10------|
|--------------------------8------------------------------|
|
|  S     +S  S  S  S  S S  S     +S    S   S S  S  S S  S
|---------------------------------------------------------|
|-10b11r(10)p8-10-----8---10b11r(10)p==8--10---10-10-8--5-|
|-10b11r(10)p8-10-----8---10b11r(10)p==8--10---10-10-8--5-|
|---------------------------------------------------------|
|---------------------------------------------------------|
|---------------------------------------------------------|


  N.C.
   Q.                        E       +H
|--------------------------[19]b22-([19])-------||
|--------------------------[17]b18-([17])-------||
|-----------------------------------------------||
|-----------------------------------------------||
|-----------------------------------------------||
|-----------------------------------------------||
|
|                                     ~~~~~~
|  S     +S   S  S  +S   S   E       +H
|-----------------------------------------------||
|-----------------------------------------------||
|-10b11r(10)--8-10-(10)--8----------------------||
|---------------------------10------(10)--------||
|
|  S     +S   S  S  +S   S   E       +Q     Q
|-----------------------------------------------||
|-12b13r(12)-10-12-(12)-10--13b15===(13)r-------||
|-----------------------------------------------||
|-----------------------------------------------||
|-----------------------------------------------||
|------------------------------------------13\--||


   Bridge
    F5    BbF5E5    F#5   E5    BbE5F#E5    F5G5
    Gtr I
                    PM            PM  PM
    E E E E S S E E E   S S E E E E S S +S  S E  4x
||--------------------|--------------------------||
||o-------------------|-------------------------o||
||--------------------|--------------------------||
||--------3-----------|---------3----------------||
||o-3-----1-3-2-----4-|-4-2-----1-2-4-2-(2)-3s5-o||
||--1-------1-0-----2-|-2-0-------0-2-0-(0)-1s3--||
|
|   E E E E S S E E E   S S E E E E S S +S  S E  4x
||--------------------|--------------------------||
||o-------------------|-------------------------o||
||o-------1-----------|---------1---------------o||
||--1-------1-0-----2-|-2-0-------0-2-0-(0)-1s3--||


  E5F#E5    F5G5E5F#E5    F5G5
                                  2/4
                                   Gtr II
  E S S +S  S E E S S +S  S S  S   S S S S S S S S
|--------------------------------|------------------||
|--------------------------------|------------------||
|--------------------------------|------------------||
|--------------------------------|-x-x-x-x-x-x-x-x--||
|-2-4-2-(2)-3s5-2-4-2-(2)-3s5s13-|-x-x-x-x-x-x-x-x--||
|-0-2-0-(0)-1s3-0-2-0-(0)-1s3----|-x-x-x-x-x-x-x-x--||
|
| E S S +S  S E E S S +S  S E        H
|--------------------------------|------------------||
|--------------------------------|------------------||
|--------------------------------|------------------||
|-0-2-0-(0)-1s3-0-2-0-(0)-1s3----|------------------||


 Chorus
  G5A5E5  G5A5E5            G5A5E5  BbG5E5
 4/4
  Gtr I
  S S E E S S E S S S E S   S S E E S S E S S S E S
|-------------------------|-------------------------|
|-------------------------|-------------------------|
|-------------------------|-------------------------|
|-------------------------|-------------------------|
|-5s7-2-x-5s7-2---x-x-x-2-|-5s7-2-x-8s5-2---x-x-x-2-|
|-3s5-0-x-3s5-0---x-x-x-0-|-3s5-0-x-6s3-0---x-x-x-0-|
|
| S S E E S S E S S S E S   S S E E S S E S S S E S
|-------------------------|-------------------------|
|-------------------------|-------------------------|
|-------------------------|-------------------------|
|-3s5-0-x-3s5-0---x-x-x-0-|-3s5-0-x-6s3-0---x-x-x-0-|


  G5A5E5  G5A5E5            G5A5E5  Bb5G5E5
  S S E E S S E S S S E S   S S E E S  S E E  S E S
|-------------------------|---------------------------|
|-------------------------|---------------------------|
|-------------------------|---------------------------|
|-------------------------|---------------------------|
|-5s7-2-x-5s7-2---x-x-x-2-|-5s7-2-x-8s=5-2-x--x-x-x---|
|-3s5-0-x-3s5-0---x-x-x-0-|-3s5-0-x-6s=3-0-x--x-x-x---|
|
| S S E E S S E S S S E S   S S E E S  S E E  S E S
|-------------------------|---------------------------|
|-------------------------|---------------------------|
|-------------------------|---------------------------|
|-3s5-0-x-3s5-0---x-x-x-0-|-3s5-0-x-6\-3-0-0--x-x-x---|


  G5A5E5  G5A5E5            G5A5E5  BbG5E5
  S S E E S S E S S S E S   S S E E S S E S S S E S
|-------------------------|-------------------------|
|-------------------------|-------------------------|
|-------------------------|-------------------------|
|-------------------------|-------------------------|
|-5s7-2-x-5s7-2---x-x-x-2-|-5s7-2-x-8s5-2---x-x-x-2-|
|-3s5-0-x-3s5-0---x-x-x-0-|-3s5-0-x-6s3-0---x-x-x-0-|
|
| S S E E S S E S S S E S   S S E E S S E S S S E S
|-------------------------|-------------------------|
|-------------------------|-------------------------|
|-------------------------|-------------------------|
|-3s5-0-x-3s5-0---x-x-x-0-|-3s5-0-x-6s3-0---x-x-x-0-|


  G5A5E5  G5A5E5            G5A5E5  Bb5G5E5
  S S E E S S E S S S E S   S S E E S  S E E S E S
|-------------------------|------------------------|
|-------------------------|------------------------|
|-------------------------|------------------------|
|-------------------------|------------------------|
|-5s7-2-x-5s7-2---x-x-x-2-|-5s7-2-x-8s=5-2-x-x-x-x-|
|-3s5-0-x-3s5-0---x-x-x-0-|-3s5-0-x-6s=3-0-x-x-x-x-|
|
| S S E E S S E S S S E S   S S E E S  S E E S E S
|-------------------------|------------------------|
|-------------------------|------------------------|
|-------------------------|------------------------|
|-3s5-0-x-3s5-0---x-x-x-0-|-3s5-0-x-6\-3-0-x-x-x-x-|


   Outro
    E5(type 2)            G5/D  A5/EE5(type 2)            Bb5/F
    Gtr I
    H             +E.     S +E  E   H             +E.      S +Q
||--------------------------------|--------------------------------|
||o-------------------------------|------------------------6-(6)---|
||--4-------------(4)-----7-(7)s9-|-4-------------(4)------3-(3)---|
||--2-------------(2)-----5-(5)s7-|-2-------------(2)------3-(3)---|
||o-2-------------(2)-----5-(5)s7-|-2-------------(2)--------------|
||--0-------------(0)-------------|-0-------------(0)--------------|
|
|   S S E +E  S S  E  +S  S +E  E   S S E +E  S S  E  +S   S +E  E
||--------------------------------|--------------------------------|
||o-------------------------------|--------------------------------|
||o-------------------------------|--------------------------------|
||--3s5-0-(0)-3s5--0--(0)-3-(3)-5-|-3s5-0-(0)-3s5--0--(0)--6-(6)-6-|
|
|   Gtr III
|   H             +E.     S +E  E   H             +E.      S +Q
||--------------------------------|--------------------------------|
||o-------------------------------|--------------------------------|
||--------------------------------|--------------------------------|
||--2-------------(2)-----5-(5)s7-|-2-------------(2)------8-(8)---|
||o-------------------------------|--------------------------------|
||--0-------------(0)-----3-(3)s5-|-0-------------(0)-----/6-(6)---|


  E5(type 2)            G5/D  A5/EF5(type 2)
  H             +E.     S +E  E   Q..         S S E  S S E.
|-------------------------------|--------------------------------||
|-------------------------------|-------------------------------o||
|-4-------------(4)-----7-(7)s9-|-5-----------x-x-5--x-x-5-------||
|-2-------------(2)-----5-(5)s7-|-3-----------x-x-3--x-x-3-------||
|-2-------------(2)-----5-(5)s7-|-3-----------x-x-3--x-x-3------o||
|-0-------------(0)-------------|-1-----------x-x-1--x-x-1-------||
|
| S S E +E  S S  E  +S  S +E  E   S   S S S S S S S  E E E  S S
|-------------------------------|--------------------------------||
|-------------------------------|-------------------------------o||
|-------------------------------|----------------------0-1--2h3-o||
|-3s5-0-(0)-3s5--0--(0)-3-(3)-5-|-1---1-1-1-1-1-1-1--1-----------||
|
| H             +E.     S +E  E   Q..         S S E  S S E.
|-------------------------------|--------------------------------||
|-------------------------------|-------------------------------o||
|-------------------------------|--------------------------------||
|-2-------------(2)-----5-(5)s7-|-3-----------x-x-3--x-x-3-------||
|-------------------------------|-------------------------------o||
|-0-------------(0)-----3-(3)s5-|-1-----------x-x-1--x-x-1-------||


    G5A5E5                        G5A5E5    BbG5E5
    Gtr I
    S S E S S S S E S S S S S S   S S E S S S S E S S S S S S    4x
||------------------------------|--------------------------------||
||o-----------------------------|-------------------------------o||
||------------------------------|--------------------------------||
||------------------------------|--------------------------------||
||o-5s7-2-----5s7-2-------------|-5s7-2-----8s5-2---------------o||
||--3s5-0-0-0-3s5-0-0-0-0-0-0-0-|-3s5-0-0-0-6s3-0-0-0-0-0-0-0----||
|
|   S S E S S S S E S S S S S S   S S E S S S S E S S S S S S    4x
||------------------------------|--------------------------------||
||o-----------------------------|-------------------------------o||
||o---------------------7-7-7-7-|---------------------7-7-7-7---o||
||--3s5-0-0-0-3s5-0-0-0---------|-3s5-0-0-0-6s3-0-0-0------------||


    G5A5E5    G5A5E5    BbG5E5      G5A5E5     BbG5E5 G5A5Bb5
    S S E S S S S E S S S S E   S S S S E  S S S S E  S S E    6x
||----------------------------|--------------------------------||
||o---------------------------|-------------------------------o||
||----------------------------|--------------------------------||
||----------------------------|--------------------------------||
||o-5s7-2-----5s7-2-----8s5-2-|-----5s7-2------8s5-2--5-7-8---o||
||--3s5-0-0-0-3s5-0-0-0-6s3-0-|-0-0-3s5-0--0-0-6s3-0--3-5-6----||
|
|   S S E S S S S E S S S S E   S S S S E  S S S S E  S S E    6x
||----------------------------|--------------------------------||
||o---------------------------|-------------------------------o||
||o---------------------------|-------------------------------o||
||--3s5-0-0-0-3s5-0-0-0-6s3-0-|-0-0-3s5-0--0-0-6s3-0--3-5-6----||


Duration Legend
---------------
W - whole; H - half; Q - quarter; E - 8th; S - 16th; T - 32nd; X - 64th; a - acciaccatura
+ - note tied to previous; . - note dotted; .. - note double dotted
Uncapitalized letters represent notes that are staccato (1/2 duration)
Irregular groupings are notated above the duration line
Duration letters will always appear directly above the note/fret number it represents the
duration for.  Duration letters with no fret number below them represent rests.  Multi-
bar rests are notated in the form Wxn, where n is the number of bars to rest for.  Low
melody durations appear below the staff

Tablature Legend
----------------
 h   - hammer-on
 p   - pull-off
 b   - bend
 pb  - pre-bend
 r   - bend release (if no number after the r, then release immediately)
 /\  - slide into or out of (from/to "nowhere")
 s   - legato slide
 S   - shift slide
  - natural harmonic
[n]  - artificial harmonic
n(n) - tapped harmonic
 ~   - vibrato
 tr  - trill
 T   - tap
 TP  - trem. picking
 PM  - palm muting
\n/  - tremolo bar dip; n = amount to dip
 \n  - tremolo bar down
 n/  - tremolo bar up
/n\  - tremolo bar inverted dip
 =   - hold bend; also acts as connecting device for hammers/pulls
 <>  - volume swell (louder/softer)
 x   - on rhythm slash represents muted slash
 o   - on rhythm slash represents single note slash

Misc Legend
-----------
 |  - bar
||  - double bar
||o - repeat start
o|| - repeat end
*|  - double bar (ending)
 :  - bar (freetime)
 $  - Segno
 &  - Coda
Tempo markers -  = BPM(8/16=s8/s16), where s8 = swing 8ths, s16 = swing 16ths





Comments


Popular Pantera tabs & chords
13 Steps To Nowhere Bass Tabs
Hellbound Bass Tabs
Im Broken 2 Bass Tabs
The Art Of Shredding Cool Intro Bass Tabs
13 Steps To Nowhere Tabs
Living Through Me (Hells' Wrath) Tabs
Mission Impossible Theme 1 Tabs
Rise Tabs
The Badge Tabs
Yesterday Dont Mean Shit 2 Tabs


Song lyrics



↑ Back to top | Tablatures and chords are parodies/interpretations of the original songs. You may use it for private study, scholarship, research or language learning purposes only
© 2014 AZChords.com Contact us | Privacy policy | DMCA | Add/correct tabs | Request tabs | Top 50 tabs