» » »

25 Years Tabs (ver.4)

Artists:  A B C D E F G H I J K L M N O P Q R S T U V W X Y Z # 

25 Years Tabs (ver.4)

Pantera
Rating:
4/5 (3 votes)

Hard to play? Try these video lessons and learn fast.
                -------------------------------------------------------------------------------
-------------------------------------------------------------------------------


First time tabbing anything. It's right and it looks ok to me. Please write me if 
I'm messed up anywhere. Thanks.             
Tuning: D,G,C,F,A,D

INTRO                                                      harm.
e|---------------------------------------------------------|x------------|
B|---------------------------------------------------------|x------------|
G|-----------0---2-0---0-2/5~---------------0---2-0--------|x------------|
D|-2-0---0-2---------2------------2-0---0-2---------2------|x------------|
A|-----2-------0----------------------2-------0-------765--|x---765------|
E|0-----------------------------0---------------------543--|x---543------|

         W/Bar   riff 1   W/Bar           W/Bar      
e|-------------|----------------------------------|
B|-------------|----------------------------------|
G|-------------|----------------------------------|
D|2---------0~-|------------0/--------------0/----|
A|2---------0~-|--x\\\\\\\\-0/----x\\\\\\\\-0/----|
E|0------------|--x\\\\\\\\-------x\\\\\\\\-------|

verse                       *   *               
e|------------------------------------------------|
B|------------------------------------------------|go to riff 1
G|------------------------------------------------|you get the idea
D|2-2-2-2-2-2-2-2-2-2-2-2-2---2---2---------------|
A|2-2-2-2-2-2-2-2-2-2-2-2-2-2-2-2-2---------------|
E|0-0-0-0-0-0-0-0-0-0-0-0-0-0-0-0-0---------------|

off beat part of verse                      
e|-------------------------------------------|
B|-------------------------------------------|go to riff 1
G|-------------------------------------------|
D|x2-2-2-2-2-2-2-2-2-2---2222----------------|
A|x2-2-2-2-2-2-2-2-2-2---2222----------------|
E|x0-0-0-0-0-0-0-0-0-0---0000----------------|

  harm.       2x
e|----------------|-----------------------|
B|----------------|-----------------------|
G|----------------|-----------------------|
D|----------------|-------1---------------|
A|----------------|----^-2-----^-1-4------|
E|3333333333333333|-1-4-----0-3-----------|
  ++++++++++++++++

  
e|-------------------------|-------------------|
B|-------------------------|-------------------|
G|-------------------------|-------------------|
D|-------------------------|-------------------|Fade out
A|---------^----------^----|222-----222--------|
E|0-000-/13--0-000-1/13\1--|000-/13-000-1/13\1-|
  * ***      * ***          ***     ***  



| ^  bend up 1/4
| *  Palm mute
| /  slide up
| \  slide down
| h  hammer-on
| p  pull-off
| ~  vibrato
| +  harmonic
| x  Mute note
===============================================================================
            
Hard to play? Try these video lessons and learn fast. | Correct




comments powered by Disqus
↑ Back to top | Tablatures and chords are parodies/interpretations of the original songs. You may use it for private study, scholarship, research or language learning purposes only