>
 >
10's

10's Bass Tabs

Pantera - 10's chords, tabs, tablatures, lyrics

Guitar lessons | Add/correct | Request | Top 50 tabs Artists:  A B C D E F G H I J K L M N O P Q R S T U V W X Y Z 0-9

10's Bass Tabs – Pantera

CD, Sheet music, Poster

Do you like 10's? Share with your friends now
Bass TabsTabs
================================================================================
                                 P A N T E R A

                                       -

                                    1 0 ' S
================================================================================


                          THE GREAT SOUTHERN TRENDKILL
		           (c) 1996 East West Records


                                Tune Down 1 Step
			           A  D G C F


 Note that the tuning on the CD track is 50 cents higher than that outlined in
                                the tab's tuning.


			         Tempo = 110 BPM
		              Time Signature = 4/4



                          -----------------------------

		                 PADDY MCMULLAN

                                   Version 1.0
                             -----------------------

		             Tablature Symbols Used:


 h         -  Hammer-on
 p         -  Pull-off
 4 b 5     -  Bend Up
 5 r 4     -  Release Bend
 \         -  Slide Down to/Down From
 /         -  Slide Up to/Up From
 ( / )     -  Legato Slide
 ( )       -  Ghost Note/Tied Note/Implied Note
 REST      -  Rest, and sustain rest for duration of blank space



                                   ===========
                                   Song  Notes
                                   ===========



 The song is played on a 5-string bass, but you can easily play the song with a
 standard 4-string; there is rarely any action taking place on the B string and
 these notes are easily substituted.



================================================================================
Intro 1.1: Play 4 times
================================================================================


||--------------------------------------|-----------------------| |
||--------------------------------------|-----------------------| |
||--------------------------------------|-----------------------|*|
||--2b  3---(3)--(3)--(3)--(3  r 2)--2--|--(2)--2---------------|*|
||--------------------------------------|-----------------------| |



On the 4th repeat, replace the last bar with the following:



|----------------------------||
|----------------------------||
|----------------------------||
|--(2)--2--2--2--2--2--2--2--||
|----------------------------||



================================================================================
Intro 1.2: Play 4 times
================================================================================


||--------------------------------------|------------------------| |
||--------------------------------------|------------------------| |
||--------------------------------------|------------------------|*|
||--2b  3---(3)--(3)--(3)--(3  r 2)--2--|--(2)--2--2--2----0--2--|*|
||--------------------------------------|------------------------| |



On the 4th repeat, replace the last bar with the following:


|-------------------||
|-------------------||
|-------------------||
|--(2)--------------||
|-------------------||



================================================================================
Play Intro 1.1 & 1.2 [Hereafter referred to as "Verse Riff"]
================================================================================

================================================================================
Chorus: Play once
================================================================================

                                       * Hold bend
||--------------------------|--------------------------|
||--------------------------|--------------------------|
||---------------2----------|----------*--*------------|
||--0------2--4-----4--(2 b |   3 )----3--3------2-----|
||--------------------------|--------------------------|


|--------------------------|-------------------||
|------------------2-------|-------------------||
|---------------2----------|-------------------||
|--0------2--4-------------|-------------------||
|--------------------(5    |   b     6  r  5)--||



================================================================================
Play Verse Riff 4 times
================================================================================

================================================================================
Play the Chorus 4 times
================================================================================

================================================================================
Guitar Solo Backing: Play once
================================================================================


  1                   2                      3
||-------------------|----------------------|----------------------|
||--R--            --|--R--            -4 / |  9-------------------|
||--E--            --|--E--            -----|-----------9------10--|
||--S--            --|--S--            -----|----------------------|
||--T--            --|--T--            -----|----------------------|

 4                             5
|--------------------11-------|---------------------|
|-------------(9/12)-----12\ -|---------------------|
|-(10)----7-------------------|--2------------------|
|-----------------------------|-----------2------3--|
|-----------------------------|---------------------|

 6                      7                     8
|---------------------||---------------------|---------------------|
|---------------------||---------------------|---------------------|
|---------------------||--2------------------|---------------------|
|-(3)-----0-----------||-----------2------3--|-(3)-----0-----------|
|---------------------||---------------------|---------------------|

 9                      10
|----------------------|--------------------------------|
|----------------------|--------------------------------|
|--2------2------------|----------------(2/5)------4p 0-|
|------------2------3--|-(3)-----0----------------------|
|----------------------|--------------------------------|

 11                     12                     13
|----------------------|----------------------|----------------------|
|----------------------|----------------------|----------------------|
|--2------2------------|----------------------|--2------2------------|
|------------2------3--|-(3)-----0------------|------------2------3--|
|----------------------|--------------3----3--|----------------------|

 14                            15
|--------------------11-------|------------------------|
|-------------(9/12)-----12\ -|------------------------|
|-----------------------------|--2------2--------------|
|-(3)-----0-------------------|------------2--0--2--3--|
|-----------------------------|------------------------|

 16                    17
|---------------------|----------------------|
|---------------------|----------------------|
|---------------------|--2------2------------|
|-(3)-----0------0----|------------2------3--|
|---------------------|----------------------|


 18                             19
|------------------------------|------------------------|
|------------------------------|------------------------|
|----------------5h7-------5p4-|--2------2--------------|
|-(3)-----0--------------------|------------2--0--2--3--|
|------------------------------|------------------------|

 20                     21                     22
|----------------------|----------------------|---------------------|
|----------------------|----------------------|---------------------|
|----------------------|--2------2------------|---------------------|
|-(3)-----0------------|------------2------3--|-(3)-----0-----------|
|--------------3----3--|----------------------|---------------------|

 23                     24                    25
|----------------------|---------------------|----------------------|
|----------------------|---------------------|----------------------|
|--2------2------------|---------------------|----------------------|
|------------2------3--|-(3)-----0--------3--|--3------3--3------2--|
|----------------------|---------------------|----------------------|

 26                      27
|-----------------------|--------------------------|
|-----------------------|--------------------------|
|--------------------4--|--5------5--(5/7)------7--|
|-(2)-----2--2----2-----|--------------------------|
|-----------------------|--------------------------|

 28                                 29
|----------------------------------|-------------------|
|----------------------------------|-------------------|
|--(7/9)------9--(11/12)------12\ -|-------------------|
|----------------------------------|--3----------------|
|----------------------------------|-------------------|

 30                    31                    32
|--------------------||---------------------|---------------------|
|--------------------||---------------------|---------------------|
|-----------1--------||--2------------------|---------------------|
|--2-----------------||-----------2------3--|-(3)-----0-----------|
|--------------------||---------------------|---------------------|

 33                    34                    35
|---------------------|---------------------|---------------------|
|---------------------|---------------------|---------------------|
|--2------------------|---------------------|--2------------------|
|-----------2------3--|-(3)-----0-----------|-----------2------3--|
|---------------------|---------------------|---------------------|

 36                    37                    38
|---------------------|---------------------|---------------------||
|---------------------|---------------------|---------------------||
|---------------------|--2------------------|---------------------||
|-(3)-----0-----------|-----------2------3--|-(3)-----0-----------||
|---------------------|---------------------|---------------------||



The first double bar signifies the beginning of the main guitar solo, and the
last signifies the end.



================================================================================
Play the Chorus 4 times, and hold the last note until fade
================================================================================

================================================================================
End
================================================================================


Tab summary:        Intro
                    Verse
                    Chorus
                    Verse
                    Chorus x 4
                    Guitar Solo
                    Chorus x 4

                    END





Comments


Popular Pantera tabs & chords
Good Friends And A Bottle Of Pills 1 Bass Tabs
Regular People Bass Tabs
Strength Beyond Strength Bass Tabs
Cowboys From Hell Drum Tabs
All Over Tonight Tabs
Cowboys From Hell Tabs
Domination (Solo) Tabs
Good Friends And A Bottle Of Pills Tabs
Medicine Man Tabs
Suicide Note Part 2 Tabs


Song lyrics



↑ Back to top | Tablatures and chords are parodies/interpretations of the original songs. You may use it for private study, scholarship, research or language learning purposes only
© 2014 AZChords.com Contact us | Privacy policy | DMCA | Add/correct tabs | Request tabs | Top 50 tabs