>
 >
Thousand Words

Thousand Words Guitar Tabs

Panic Cell - Thousand Words chords, tabs, tablatures, lyrics

Guitar lessons | Add/correct | Request | Top 50 tabs Artists:  A B C D E F G H I J K L M N O P Q R S T U V W X Y Z 0-9

Thousand Words Guitar Tabs – Panic Cell

CD, Sheet music, Poster

Do you like Thousand Words? Share with your friends now
Tabs

Tuning:E.bb/A.bb/D.bb/G.bb/B.bb/e.bb (A full step down)

Intro
e|---------------------------0----------------------------------------------|
B|-------0----------0------3-------0----------------------0-----------------|
G|------0--0------2------2--------0--0-------4bubd------4----4--------------|
D|----4------0---0---------------4-----4---4------0h2--------2--------------|
A|--2----------2-------1----------------------------------------------------|
E|-0--------------------------0----------3----------------------------------|

e|----------------------------0----2p0----0----------------------------------|C
B|-------0-----------0-----------------0---------1---------------------------|
G|------0---0------------------------------------0---Em----------------------|
D|----4-------4----4------4----------------------2----2----------------------|
A|--2----------2--2------2-----------------------3----0----------------------|
E|-0------------2-------1-----------------------------0-----3---2---0--------|

e|--------------------------0-----------------------------------------------|
B|-----0----------0-------3--------0---------------------0------------------|
G|----0--0------2-------2--------0---0------4bubd-----4----4----------------|
D|---4----0---0----------------4-------4---4------0h2------2----------------|
A|--2-------2--------1------------------------------------------------------|
E|-0-------------------------0-----------3----------------------------------|

e|----------------------------0------2p0-----0-------------------------------|
B|-----0-----------0-----------------------0---------------------------------|
G|----0--0-------------------------------------------------------------------|
D|---4-----4----4--------4--------------------------2------------------------|
A|--2-------2--2-------2----------------------------2------------------------|
E|-0---------2-------1------------------------------0-.............-3--2--0--|


-Repeat all tabs above once for 1st verse
-Fill for chorus (Fill 1) Listen for timing and repeats
e|--------------------------------------------------------------------------|
B|--------------------------------------------------------------------------|
G|----------------7--5------------------------------------------------------|
D|-2-2-2-2-2-2-2--7--5-2----------------------------------------------------|
A|-2-2-2-2-2-2-2--5--3-2----------------------------------------------------|
E|-0-0-0-0-0-0-0-------0----------------------------------------------------|

-Chorus
e|---------------------------------------------------------------------------|
B|---------------------------------------------------------------------------|
G|-4-4---7---5--------------7---5----------7--7---5---4-----7--5--5----------|
D|-4-4---7---5----2--2------7---5--5-5-----7--7---5---4--5--7--5--5----------|
A|-2-2---5---3----2--2------5---3--5-5-----9--5---3---2--5--9--7--3----------|
E|----------------0--0-------------3-3-------------------3-------------------|

e|--------------------------------------------------------------------------|
B|--------------------------------------------------------------------------|
G|-5----5--9--7--5--4--5--5--4----------------------------------------------|
D|-5----5--9--7--5--4--5--5--4--5--2----------------------------------------|
A|-3----3--7--5--3--2--7--3--2--5--2----------------------------------------|
E|------------------------------3--0----------------------------------------|

Fill 2
e|--0--2---2p0-------0--2---2p0--------0--2---2p0---------------------------|
B|---------------0----------------0-----------------------------------------|
G|-------------------------------------------------0------------------------|
D|--------------------------------------------------------------------------|
A|--------------------------------------------------------------------------|
E|---------------------------------------------------------3---2---0--------|
Back to intro riff repeate to fit timing, do this for all verses

Thats as far as i have got so far, i am trying to guess the solo too, but thats
the part that takes a while, i have got a bit of it, but its not really worth
tabbing yet. hope you enjoy. Keep checking this tab, if i find all the solo then
i will tab it. i dnt think its quite right but its close enough. Go play it!


| /  slide up
| \  slide down
| h  hammer-on
| p  pull-off
| ~  vibrato
| +  harmonic
| x  Mute note





Comments


Popular Panic Cell tabs & chords
Away From Here Bass Tabs
Away From Here Tabs
Save Me Intro Tabs
Thousand Words Intro Tabs


Song lyrics



↑ Back to top | Tablatures and chords are parodies/interpretations of the original songs. You may use it for private study, scholarship, research or language learning purposes only
© 2014 AZChords.com Contact us | Privacy policy | DMCA | Add/correct tabs | Request tabs | Top 50 tabs