>
 >
Away From Here

Away From Here Guitar Tabs

Panic Cell - Away From Here chords, tabs, tablatures, lyrics

Guitar lessons | Add/correct | Request | Top 50 tabs Artists:  A B C D E F G H I J K L M N O P Q R S T U V W X Y Z 0-9

Away From Here Guitar Tabs – Panic Cell

CD, Sheet music, Poster

Do you like Away From Here? Share with your friends now
Bass TabsTabs
                                 AWAY FROM HERE
                            As recorded by Panic Cell
                     (From the 2004 Album BITTER PART OF ME)


Gtr I (C G C F A D) - 'Rhythm'
Gtr II (C G C F A D) - 'Lead'
Gtr III (C G C F A D) - 'Clean'
Gtr IV (C G C F A D) - 'Pick Scrapes'

 Intro
  Q=94
 4/4
  Gtr I
  Wx2
|--------|
|--------|
|--------|
|--------|
|--------|
|--------|


  E S S S S E S S S S E S S   E S S S S E S S S S E S S
|---------------------------|---------------------------|
|---------------------------|---------------------------|
|---------------------------|---------------------------|
|---------------------------|---------------------------|
|-0---------0---------0-3s5-|-0---------0---------0-3s5-|
|-0-0-0-3p0-0-0-0-3p0-0-----|-0-0-0-3p0-0-0-0-3p0-0-----|


  E S S S S E S S S S E S S   E S S S S E S S E E E
|---------------------------|------------------------|
|---------------------------|------------------------|
|---------------------------|------------------------|
|---------------------------|------------------------|
|-0---------0---------0-3s5-|-0---------0-0---3-2-3--|
|-0-0-0-3p0-0-0-0-3p0-0-----|-0-0-0-3p0-0-0---3-2-3--|


  E   S S S S E S S S S E S S   E   S S S S E S S S S E S S
|-----------------------------|-----------------------------|
|-----------------------------|-----------------------------|
|-----------------------------|-----------------------------|
|-----------------------------|-----------------------------|
|-0-----------0---------0-3s5-|-0-----------0---------0-3s5-|
|-0---0-0-3p0-0-0-0-3p0-0-----|-0---0-0-3p0-0-0-0-3p0-0-----|
|
| Gtr II
| H..                     E     H..                     E
|-----------------------------|-----------------------------|
|-----------------------------|-----------------------------|
|-7-----------------------x---|-5-----------------------x---|
|-7-----------------------x---|-5-----------------------x---|
|-5-----------------------x---|-3-----------------------x---|
|-----------------------------|-----------------------------|


  E   S S S S E S S S S E S S   E S S S S E E  E E E
|-----------------------------|------------------------|
|-----------------------------|------------------------|
|-----------------------------|------------------------|
|-----------------------------|------------------------|
|-0-----------0---------0-3s5-|-0---------0-0--3-2-3---|
|-0---0-0-3p0-0-0-0-3p0-0-----|-0-0-0-3p0-0-0--3-2-3---|
|
|                                           Gtr IV
|                                           TP
| H..                     E     H           H
|-----------------------------|------------------------|
|-----------------------------|------------------------|
|-3-----------------------x---|-7----------------------|
|-3-----------------------x---|-7-----------x\---------|
|-1-----------------------x---|-5-----------x\---------|
|-----------------------------|------------------------|


   E    S S  S    S  E       S   S  S    S  E    S S    E    S S  S    S  E       S   S  S    S  E    S S
|----------------------------------------------------|----------------------------------------------------|
|----------------------------------------------------|----------------------------------------------------|
|----------------------------------------------------|----------------------------------------------------|
|----------------------------------------------------|----------------------------------------------------|
|--0-----------------0----------------------0----3s5-|--0-----------------0----------------------0----3s5-|
|--0----0-0--3p===0--0-------0---0--3p===0--0--------|--0----0-0--3p===0--0-------0---0--3p===0--0--------|
|
| Gtr II
|  Q         E       E      +E      E       Q           Q         E       E      +E      E       Q
|----------------------------------------------------|----------------------------------------------------|
|-15--------15------15-----(15)----15------15--------|-17--------17------17-----(17)----17------17--------|
|-17b19-----17b19---17b19==(17)r---17b19---17b19-----|-19b21-----19b21---19b21==(19)r---19b21---19b21-----|
|----------------------------------------------------|----------------------------------------------------|
|----------------------------------------------------|----------------------------------------------------|
|----------------------------------------------------|----------------------------------------------------|


   E    S S  S    S  E       S   S  S    S  E    S S    E    S S  S    S  E       E    E     E    E
|----------------------------------------------------|------------------------------------------------|
|----------------------------------------------------|------------------------------------------------|
|----------------------------------------------------|------------------------------------------------|
|----------------------------------------------------|------------------------------------------------|
|--0-----------------0----------------------0----3s5-|--0-----------------0-------0----3-----2----3---|
|--0----0-0--3p===0--0-------0---0--3p===0--0--------|--0----0-0--3p===0--0-------0----3-----2----3---|
|
|  Q         E       E      +E      E       Q           Q         E       E      +E    E     Q
|----------------------------------------------------|-15--------15------15-----(15)--15----15--------|
|-18--------18------18-----(18)----18------18--------|-18b20-----18b20---18b20==(18)r-18b20-18b20-----|
|-20b22-----20b22---20b22==(20)r---20b22---20b22-----|------------------------------------------------|
|----------------------------------------------------|------------------------------------------------|
|----------------------------------------------------|------------------------------------------------|
|----------------------------------------------------|------------------------------------------------|


 Chorus
   W                W             W
|---------------|-------------|-------------|
|--6------------|---8---------|--10---------|
|--5------------|---7---------|---9---------|
|--7------------|---9---------|--10---------|
|--5------------|---7---------|---8---------|
|---------------|-------------|-------------|
|
|                   >
|  W               +W            +W
|-17------------|-(17)--------|-(17)--------|
|-20b22=========|=(20)--------|-(20)--------|
|---------------|-------------|-------------|
|---------------|-------------|-------------|
|---------------|-------------|-------------|
|---------------|-------------|-------------|


    S  S S S S S S S   S  S S S S S S S
|----------------------------------------|
|----------------------------------------|
|----------------------------------------|
|---5--5-5-5-5-5-5-5---5--5-5-5-5-5-5-5--|
|---3--3-3-3-3-3-3-3---2--2-2-2-2-2-2-2--|
|----------------------------------------|
|
|  +H                 +H
|-(17)---------------(17)----------------|
|-(20)r==============(20)----------------|
|----------------------------------------|
|----------------------------------------|
|----------------------------------------|
|----------------------------------------|


  W          W           W          S S S S S S S S S S S S S S S S
|----------|----------|-----------|----------------------------------|
|-6--------|-8--------|-10--------|----------------------------------|
|-5--------|-7--------|--9--------|----------------------------------|
|-7--------|-9--------|-10--------|-5-5-5-5-5-5-5-5-5-5-5-5-5-5-5-5--|
|-5--------|-7--------|--8--------|-3-3-3-3-3-3-3-3-2-2-2-2-2-2-2-2--|
|----------|----------|-----------|----------------------------------|


  Wx4
|--------|
|--------|
|--------|
|--------|
|--------|
|--------|


 Verse
  Gtr III
    W           W           W           W
|-^12--------|-^7--------|-^5--------|-^3----|
|-^13--------|-^8--------|-^6--------|-^5----|
|-^12--------|-^7--------|-^5--------|-^3----|
|------------|-----------|-----------|-------|
|------------|-----------|-----------|-------|
|------------|-----------|-----------|-------|


    Gtrs I, II
    E S S S S E S S S S E S S   E S S S S E S S S S E S S
||----------------------------|---------------------------|
||o---------------------------|---------------------------|
||----------------------------|---------------------------|
||----------------------------|---------------------------|
||o-0---------0---------0-3s5-|-0---------0---------0-3s5-|
||--0-0-0-3p0-0-0-0-3p0-0-----|-0-0-0-3p0-0-0-0-3p0-0-----|


  E S S S S E S S S S E S S   E S S S S E E E E E   4x
|---------------------------|-----------------------||
|---------------------------|----------------------o||
|---------------------------|-----------------------||
|---------------------------|-----------------------||
|-0---------0---------0-3s5-|-0---------0-0-3-2-3--o||
|-0-0-0-3p0-0-0-0-3p0-0-----|-0-0-0-3p0-0-0-3-2-3---||


   Chorus
    W          W           W          S S S S S S S S S S S S S S S S
||-----------|----------|-----------|----------------------------------||
||o-6--------|-8--------|-10--------|---------------------------------o||
||--5--------|-7--------|--9--------|----------------------------------||
||--7--------|-9--------|-10--------|-5-5-5-5-5-5-5-5-5-5-5-5-5-5-5-5--||
||o-5--------|-7--------|--8--------|-3-3-3-3-3-3-3-3-2-2-2-2-2-2-2-2-o||
||-----------|----------|-----------|----------------------------------||


    E S S S S E S S S S E S S   E S S S S E S S S S E S S
||----------------------------|---------------------------|
||o---------------------------|---------------------------|
||----------------------------|---------------------------|
||----------------------------|---------------------------|
||o-0---------0---------0-3s5-|-0---------0---------0-3s5-|
||--0-0-0-3p0-0-0-0-3p0-0-----|-0-0-0-3p0-0-0-0-3p0-0-----|


  E S S S S E S S S S E S S   E S S S S E E E E E
|---------------------------|-----------------------||
|---------------------------|----------------------o||
|---------------------------|-----------------------||
|---------------------------|-----------------------||
|-0---------0---------0-3s5-|-0---------0-0-3-2-3--o||
|-0-0-0-3p0-0-0-0-3p0-0-----|-0-0-0-3p0-0-0-3-2-3---||


  Wx4
|--------|
|--------|
|--------|
|--------|
|--------|
|--------|


 Verse
  Gtr III
    W           W           W           W
|-^12--------|-^7--------|-^5--------|-^7----|
|-^13--------|-^8--------|-^6--------|-^8----|
|-^12--------|-^7--------|-^5--------|-^7----|
|------------|-----------|-----------|-------|
|------------|-----------|-----------|-------|
|------------|-----------|-----------|-------|


    W           W           W           W
|-^12--------|-^7--------|-^5--------|-^3----|
|-^13--------|-^8--------|-^6--------|-^5----|
|-^12--------|-^7--------|-^5--------|-^3----|
|------------|-----------|-----------|-------|
|------------|-----------|-----------|-------|
|------------|-----------|-----------|-------|


    W           W           W           W
|-^12--------|-^7--------|-^5--------|-^3----|
|-^13--------|-^8--------|-^6--------|-^5----|
|-^12--------|-^7--------|-^5--------|-^3----|
|------------|-----------|-----------|-------|
|------------|-----------|-----------|-------|
|------------|-----------|-----------|-------|


    W           W           W           W
|-^12--------|-^7--------|-^5--------|-^3----------|
|-^13--------|-^8--------|-^6--------|-^5----------|
|-^12--------|-^7--------|-^5--------|-^3----------|
|------------|-----------|-----------|-------------|
|------------|-----------|-----------|-------------|
|------------|-----------|-----------|-------------|
|
| Gtr IV
|                                            TP
|   W           W           W           H    H
|------------|-----------|-----------|-------------|
|------------|-----------|-----------|-------------|
|------------|-----------|-----------|-------------|
|------------|-----------|-----------|-------x\----|
|------------|-----------|-----------|-------x\----|
|------------|-----------|-----------|-------------|


    Gtrs I, II
    E S S S S E S S S S E S S   E S S S S E S S S S E S S
||----------------------------|---------------------------|
||o---------------------------|---------------------------|
||----------------------------|---------------------------|
||----------------------------|---------------------------|
||o-0---------0---------0-3s5-|-0---------0---------0-3s5-|
||--0-0-0-3p0-0-0-0-3p0-0-----|-0-0-0-3p0-0-0-0-3p0-0-----|


                                                     3/4
  E S S S S E S S S S E S S   E S S S S E E E E E     E E E E Q
|---------------------------|----------------------||--------------|
|---------------------------|---------------------o||--------------|
|---------------------------|----------------------||--------------|
|---------------------------|----------------------||--------------|
|-0---------0---------0-3s5-|-0---------0-0-3-2-3-o||---3-2-3------|
|-0-0-0-3p0-0-0-0-3p0-0-----|-0-0-0-3p0-0-0-3-2-3--||---3-2-3------|


   Chorus
   4/4
    W          W           W          S S S S S S S S S S S S S S S S   4x
||-----------|----------|-----------|-----------------------------------||
||o-6--------|-8--------|-10--------|----------------------------------o||
||--5--------|-7--------|--9--------|-----------------------------------||
||--7--------|-9--------|-10--------|-5-5-5-5-5-5-5-5-5-5-5-5-5-5-5-5---||
||o-5--------|-7--------|--8--------|-3-3-3-3-3-3-3-3-2-2-2-2-2-2-2-2--o||
||-----------|----------|-----------|-----------------------------------||


    E S S S S E S S S S E S S   E S S S S E S S S S E S S
||----------------------------|---------------------------|
||o---------------------------|---------------------------|
||----------------------------|---------------------------|
||----------------------------|---------------------------|
||o-0---------0---------0-3s5-|-0---------0---------0-3s5-|
||--0-0-0-3p0-0-0-0-3p0-0-----|-0-0-0-3p0-0-0-0-3p0-0-----|


  E S S S S E S S S S E S S   E S S S S E S S E E E
|---------------------------|------------------------||
|---------------------------|-----------------------o||
|---------------------------|------------------------||
|---------------------------|------------------------||
|-0---------0---------0-3s5-|-0---------0-0---3-2-3-o||
|-0-0-0-3p0-0-0-0-3p0-0-----|-0-0-0-3p0-0-0---3-2-3--||


   Outro
    S S S S E S S S S E S S S S   S S S S E S S S S E E E  4x E E E E H
||------------------------------|--------------------------||--------------*|
||o-----------------------------|-------------------------o||--------------*|
||------------------------------|--------------------------||--------------*|
||------------------------------|--------------------------||--------------*|
||o---------0---------0-----3s5-|---------0---------3-2-3-o||---3-2-3------*|
||--0-0-0-0-0-0-0-0-0-0-0-0-----|-0-0-0-0-0-0-0-0-0-3-2-3--||---3-2-3------*|





Comments


Popular Panic Cell tabs & chords
Away From Here Bass Tabs
Save Me Intro Tabs
Thousand Words Tabs
Thousand Words Intro Tabs


Song lyrics



↑ Back to top | Tablatures and chords are parodies/interpretations of the original songs. You may use it for private study, scholarship, research or language learning purposes only
© 2014 AZChords.com Contact us | Privacy policy | DMCA | Add/correct tabs | Request tabs | Top 50 tabs